Song name
# A B C D E F G H I J K L M N O P Q R S T U V W X Y Z

Queens Of The Stone Age - Into The Hollow Acoustic tab

Tab of Joshs guitar from this show: http://www.youtube.com/watch?v=4gu_v2Y0H_Y

Intro/main riff

E|--------------------------------|
B|--------------------------------|
G|--------------------------------|
D|--------------------------------|
A|-----------------------------10-|
E|--12----12--10--12--10--12------|

verses

E|---------------------------------------------|
B|---------------------------------------------|
G|---------------------------------------------|
D|---------------------------------------------|
A|--10--10-10-10-10-------------------------10-|
E|-------------------10s12s10--10-10-10-10-----|

E|--------------------------------|
B|--------------------------------|
G|--------------------------------|
D|--------------------------------|
A|-----------------------------10-|
E|--12----12--10--12--10--12------|

chorus

E|--------------------------------------------|
B|--------------------------------------------|
G|--------------------------------------------|
D|---9---9--12---9--12---9---9---9---9--------|
A|--10--10--10--10--10--10--10--10--10--------|
E|--------------------------------------------|

E|--------------------------------------------|
B|--------------------------------------------|
G|--------------------------------------------|
D|--11--11--14--11--14--11--11--11--11--------|
A|--12--12--12--12--12--12--12--12--12--------|
E|--------------------------------------------|

E|---------------------------------------------------------|
B|---------------------------------------------------------|
G|--8--8--11-8--11-8--8--8--8--8--11-8--12--12--11--8------|
D|--9--9--9--9--9--9--9--9--9--9--9--9--9---9---9---9------|
A|---------------------------------------------------------|
E|---------------------------------------------------------|

a little breakdown thing between first chorus and second verse 
(http://youtu.be/uUwap3_EH6s?t=2m36s)

E|-----------------------------------|
B|-----------------------------------|
G|-----------------------------------|
D|----------------14--12-------------|
A|-----------------------14--12--10--|
E|--12----12--10---------------------|

bridge after second chorus

E|-------------------------------------------------------------|
B|-------------------------------------------------------------|
G|-----------------11--9----------------------12s14-----12--11-|
D|---9---9--9--12---------12--11--11--11--11---------14--------|
A|--10--10------------------------12--12-----------------------|
E|-------------------------------------------------------------|

E|----------------------------------------------------------------------------|
B|----------------------------------------------------------------------------|
G|-----------------------------------------------------14------------------12-|
D|--13--13--13--16--17b--16--13--------13--13--13--16------11--11--11--14-----|
A|--14--14-----------------------14----14--14--------------12--12-------------|
E|----------------------------------------------------------------------------|

E|--------------------------------------------------------|
B|--------------------------------------------------------|
G|--------------------------------------------------------|
D|---9---9---9---9---9---9---9--7--5--5--5--5--5--5--5--5-|
A|--10--10--10--10--10--10--10--9--7--7--7--7--7--7--7--7-|
E|--------------------------------------------------------|


E|-----------------------------------------------|
B|-----------------------------------------------|
G|-----------------------------------------------|
D|--7--7--7--5--4--4--4--5--7--7--7--5--1--1--1--|
A|--9--9--9--7--6--6--6--7--9--9--9--7--2--2--2--|
E|-----------------------------------------------|

That's all folks.
If you have any corrections or questions pm me.

Cheers to guys from TheFade.net :)
Tap to rate this tab
# A B C D E F G H I J K L M N O P Q R S T U V W X Y Z