Song name
# A B C D E F G H I J K L M N O P Q R S T U V W X Y Z

Queens Of The Stone Age - River In The Road Acoustic tab

Joshs guitar from here http://www.youtube.com/watch?v=FC7lqY7qANM

Verses

E|-----------------------------------------------------------------------------------------------|
B|-----------------------------------------------------------------------------------------------|
G|-------------4-4-4---4-------------------------------------------------------------------------|
D|--5-5-5---5--4-4-4---4--4-4-4--4--5-5-5---5--2-2-2---2--4-4-4---4--12-12-12---12-12-9-9-9---9--|
A|--5-5-5---5--2-2-2---2--4-4-4--4--5-5-5---5--2-2-2---2--4-4-4---4--12-12-12---12-12-9-9-9---9--|
E|--3-3-3---3-------------2-2-2--2--3-3-3---3--0-0-0---0--2-2-2---2--10-10-10---10-10-7-7-7---7--|

Chorus

E|--------------------------------------------------------------------------------|
B|--------------------------------------------------------------------------------|
G|--------------------------------------------------------------------------------|
D|--5-5-5---5-5-5---9-9-9---9-9-9---4-4-4---4-4-4---5-5-5---5-5-5---2-2-2---2-2-2-|
A|--5-5-5---5-5-5---9-9-9---9-9-9---4-4-4---4-4-4---5-5-5---5-5-5---2-2-2---2-2-2-|
E|--3-0-3---3-0-3---7-0-7---7-0-7---2-0-2---2-0-2---3-0-3---3-0-3---0-3-0---0-3-0-|

E|------------------------------------------------------|
B|------------------------------------------------------|
G|------------------------------------------------------|
D|--4-4-4---4-4-4---12-12-12---12-12-12---9-9-9---9-9-9-|
A|--4-4-4---4-4-4---12-12-12---12-12-12---9-9-9---9-9-9-|
E|--2-3-2---2-3-2---10-0--10---10-0--10---7-0-7---7-0-7-|

SOLO I (not too sure about last four notes, but it fits)

E|---------------------------------------------------------------------|
B|--------19--------17------17--------15------15------------14------14-|
G|--16----------16------16--------16------16------16----14------14-----|
D|---------------------------------------------------------------------|
A|---------------------------------------------------------------------|
E|---------------------------------------------------------------------|

E|-----------------------------------------------------------------------|
B|------12------12-----------12------12-------8-----8------------------7-|
G|--12------12-------12--11------11--------9-----9-----9------7--9--7----|
D|-----------------------------------------------------------------------|
A|-----------------------------------------------------------------------|
E|-----------------------------------------------------------------------|

SOLO II

All notes on tremolo

E|--17--15--19--14------12--12--14--12--------------------------------------------|
B|------------------12------------------12--14--12--14--15--17--15--14--12-----12-|
G|--------------------------------------------------------------------------12----|
D|--------------------------------------------------------------------------------|
A|--------------------------------------------------------------------------------|
E|--------------------------------------------------------------------------------|

Ending

E|---------------------------------------------------------------|
B|---------------------------------------------------------------|
G|---------------------------------------------------------------|
D|--12-12-12-12--9-9-9-9--9-9-9-9--12-12-12-12--9-9-9-9--9-9-9-9-|
A|--12-12-12-12--9-9-9-9--9-9-9-9--12-12-12-12--9-9-9-9--9-9-9-9-|
E|--10-10-10-10--7-7-7-7--7-7-7-7--10-10-10-10--7-7-7-7--7-7-7-7-|

E|--------------------------------------------------------------------------|
B|--------------------------------------------------------------------------|
G|--------------------------------------------------------------------------|
D|--12-12-12-12--16-16-16-16-16-16-16-16--12-12-12-12--16-16-16-16-16-16-16-|
A|--12-12-12-12--16-16-16-16-16-16-16-16--12-12-12-12--16-16-16-16-16-16-16-|
E|--10-10-10-10--14-14-14-14-14-14-14-14--10-10-10-10--14-14-14-14-14-14-14-|

E|-----------------------------------------------------|
B|-----------------------------------------------------|
G|-----------------------------------------------------|
D|--12-12-12-12--11-9-9--9-9--12-12-12-12--11-9-9--9-9-|
A|--12-12-12-12--11-9-9--9-9--12-12-12-12--11-9-9--9-9-|
E|--10-10-10-10--9--7-7--0-7--10-10-10-10--9--7-7--0-7-|

E|----------------------------------------------------|
B|----------------------------------------------------|
G|----------------------------------------------------|
D|--12-12-12-12--16-16-16-16-16-16-16-16--12-12-12-12-|
A|--12-12-12-12--16-16-16-16-16-16-16-16--12-12-12-12-|
E|--10-10-10-10--14-14-14-14-14-14-14-14--10-10-10-10-|
Tap to rate this tab
# A B C D E F G H I J K L M N O P Q R S T U V W X Y Z