Song name
# A B C D E F G H I J K L M N O P Q R S T U V W X Y Z

Queens Of The Stone Age - The Vampyre Of Time And Memory tab

Verse #1:

Dm                      Dm/C
I want god to come, and take me home
         G/B               F      A
Cos I'm all alone, In this crowd
        Dm                 Dm/C
Who are you to me, who i'm supposed to be
          G/B     F      A
Not exactly sure, anymore
             Dm             Dm/C
Wheres this going to? Can I follow through?
         G/B               F      A 
Not just follow you, for a while

Chorus:

      A#    E/F           A
Does anyone ever get this right?
  A#     E/F   A
I feel   no   love

Solo:

e|-------------------------------------------------------------------------|
B|-------------------------------------------------------------------------|
G|--12b14--------------------12b14--r12--10h12p10--------------------------|
D|-----------------------------------------------9b10--7-------------------|
A|-----------------------------------------------------------10b12---------|
E|------------------------------------------------------------------10-----|

e|------------------------------------------------------------------------------------|
B|-------------------12b13---------------------------------------------12b13----------|
G|--12b14r12b14--10------------------12b14r12b14----12g14--12--10--12-----------------|
D|------------------------------------------------------------------------------------|
A|------------------------------------------------------------------------------------|
E|------------------------------------------------------------------------------------|


Verse #2:

    Dm                    Dm/C
And confusion here,  It is as i feared
    G/B                       F    A
The illusion that you feel is real
       Dm                Dm/C
To be vulnurable, needed most of all
       G/B                   F    A            
If you intend to truly fall, apart


Bridge:

Dm                             E
You think the worst of all, Is far behind
    A#                  F             G/B
The vampire of time and memories, has died
  A#                 F             G/B
I survived, speak or breathe,  I'm incomplete
    A#     Dm/C
I'm alive, Hurraaaey
     G/B                A#   E  A
Your wrong again, cos I feel no love


Chorus:

     A#     E/F           A
Does anyone ever get this right?

Solo #2:

e|-------------------------------------------------------------------------------|
B|-------------------------------------------------------------------------------|
G|-------------------------------------------------------------------------------|
D|-------------------------------------------------------------------------------|
A|--10b12r10b12----8--7------------------------7---7------------8--8-8p7h8-12----|
E|-------------------------10--9----7--5----5----9---9----5h7h9------------------|

e|-----------------------------------------------------------------------------------------------|
B|-----------------------------------------------------------------------------------------------|
G|---14b15r14--12p10--12b13r12--10--9--10--9--10g12---9-----10b12r10--12b14--------12b14r12------|
D|---------------------------------------------------------------------------11--------------11--|
A|-----------------------------------------------------------------------------------------------|
E|-----------------------------------------------------------------------------------------------|

End:


     A#     E/F           A
Does anyone ever get this right?
  A#       E/F   A
I feel     no    love
  A#       E/F   A
I feel     no    love

e|----------------------------------------------------------------------------------------|
B|----------------------------------------------------------------------------------------|
G|---14b15r14--12--10-----10b12--12--10--9-----10/12\10--12b14---------12b14r12b14--------|
D|----------------------------------------------------------------------------------11----|
A|--------------------------------------------------------------12------------------------|
E|----------------------------------------------------------------------------------------|

e|----------------------------------------------------------------------------------|
B|----------------------------------------------------------------------------------|
G|----------------------------------------------------------------------------------|
D|---12-12-12-12-12-12-12-12-12-12-12-12-12g14--14b15--12g14--12--9g11--9-----------|
A|------------------------------------------------------------------------12-10--12-|
E|----------------------------------------------------------------------------------|

e|----------------------------------|
B|----------------------------------|
G|----------------------------------|
D|-11--11g14--11-----11/12----------|
A|----------------------------------|
E|----------------------------------|
Tap to rate this tab
 
# A B C D E F G H I J K L M N O P Q R S T U V W X Y Z