Song name
# A B C D E F G H I J K L M N O P Q R S T U V W X Y Z

Queens Of The Stone Age - Sick Sick Sick tab

------------------------------------------------
   Sick, Sick, Sick - Queens Of The Stone Age
------------------------------------------------
Tabbed by: millarso (Jake Miller)
E-mail: millarso2.0@gmail.com

Tuning: Standard C
Guitar 1: Left Channel
Guitar 2: Right Channel

INTRO
Guitar 1
c |---------------------|
G |---------------------|
Eb|---------------------|
Bb|---------------------|x2
F |-17---17---17---17---|
C |--0----0----0----0---|

SECTION 1
Both Guitars
c |---------------------|
G |---------------------|
Eb|---------------------|
Bb|---------------------|x4
F |-17---17---17---17---|
C |--0----0----0----0---|

SECTION 2
c |---------------------------------------------|
G |---------------------------------------------|
Eb|---------------------------------------------|
Bb|---------------------------------------------|
F |-17---17---17---17-17---17---17---17---17-17-|
C |--0----0----0----0--0----0----0----0----0--0-|

c |---------------------------------------------------------------|
G |---------------------------------------------------------------|
Eb|---------------------------------------------------------------|
Bb|---------------------------------------------------------------|
F |-17--1717--17--17--1717--17----17--1717--17--17--1717--17--17--|
C |--0---0-0---0---0---0-0---0-----0---0-0---0---0---0-0---0---0--|

REPEAT SECTION 2 (x2)(Verse 1)

SECTION 3
c |-------------------------|
G |-------------------------|
Eb|-------------------------|
Bb|-------------------------|x4
F |-17---17---17--19h21-21\-|
C |--0----0----0------------|

SECTION 4
c |---------------------------------------|
G |---------------------------------------|
Eb|---------------------------------------|
Bb|---------------------------------------|x8
F |---------------------------------------|
C |-10p0-10p0-12p0-12\10-12\7--14-14p12p0-|

SECTION 5 (Verse 2, similar to Section 2)
Both Guitars
c |---------------------------------------------|
G |---------------------------------------------|
Eb|---------------------------------------------|
Bb|---------------------------------------------|
F |-17---17---17---17-17---17---17---17---17-17-|
C |--0----0----0----0--0----0----0----0----0--0-|

c |--------------------------------------------------------------|
G |--------------------------------------------------------------|
Eb|--------------------------------------------------------------|
Bb|--------------------------------------------------------------|
F |-17--17171717---17--17171717---17--17171717--17--1717--17--17-|
C |--0---0-0-0-0----0---0-0-0-0----0---0-0-0-0---0---0-0---0---0-|

c |----------------------------------------------------|
G |----------------------------------------------------|
Eb|----------------------------------------------------|
Bb|----------------------------------------------------|
F |-17---17-17---17---17-17----17171717---17--17171717-|
C |--0----0--0----0----0--0-----0-0-0-0----0---0-0-0-0-|

c |---------------------------------------------------------------|
G |---------------------------------------------------------------|
Eb|---------------------------------------------------------------|
Bb|---------------------------------------------------------------|
F |-171717171717--17--1717--17----17--1717--17--17--1717--17--17--|
C |--0-0-0-0-0-0---0---0-0---0-----0---0-0---0---0---0-0---0---0--|

SECTION 6 (almost identical to SECTION 3)
Both Guitars
c |-------------------------|
G |-------------------------|
Eb|-------------------------|
Bb|-------------------------|x8
F |-17---17---17--19h21-21\-|
C |--0----0----0------------|
||
Extra Guitar
c |-17~-----16~---15~----------|
G |-------15------------15-17~-|
Eb|----------------------------|
Bb|----------------------------|x4
F |----------------------------|
C |----------------------------|

NOTE: I am fairly sure the next part is mostly synth and a little guitar noise,
so I'm not going to bother tabbing it.

REPEAT SECTION 6 x1 (leave Extra Guitar out until halfway through)
REPEAT SECTION 4 x1

SECTION 7
c |-------------------------------|
G |-------------------------------|
Eb|-------------------------------|
Bb|-------------------------------|
F |-------------------------------|
C |-12--0-12-12--0-12-12--0-12-12-|

c |------------------------------------|
G |------------------------------------|
Eb|------------------------------------|
Bb|------------------------------------|x3
F |------------------------------------|
C |-0-12-12--0-12-12--0-12-12--0-12-12-|

REPEAT SECTION 6 to close...

I love the simplicity of this song. I would recommend listening closely
to the verses to get the rhythms just right. They often mimic Josh's
vocal melody.
Please rate & comment.
Thanks,
millarso

************************************

| /   slide up
| \   slide down
| h   hammer-on
| p   pull-off
| ~   vibrato
| +   harmonic
| x   Mute note
| b   Bend
| pb  Pre-bend
| br  Bend release
| pbr Pre-bend release
| brb Bend release bend

************************************
Tap to rate this tab
# A B C D E F G H I J K L M N O P Q R S T U V W X Y Z