Song name
# A B C D E F G H I J K L M N O P Q R S T U V W X Y Z

Queens Of The Stone Age - Youve Got A Killer Scene There Man tab

|----7--7--7---7-7----| 
|----8--8--8---8-8----|
|---------------------| Guitar #2
|---------------------| 
|---------------------| 
|---------------------|

|---------------------------------------------------------------------------| 
|---12~-----12p11---12--11-12-13--11h12p11-11-11----------------------------| Guitar #1
|------------------------------------------------12----11br-----------------| 
|---------------------------------------------------------------------------| 
|---------------------------------------------------------------------------| 
|---------------------------------------------------------------------------| 
|
|---------------------------------------------------------------------------|
|---------------------------------------------------------------------------|
|--------------11-11br------------------------------------------------------|
|---12-12/14------------12---12/14------------------------------------------|
|-----------------------------------14----12/14-----------------------------|
|-----------------------------------------------15--------------------------|
Tap to rate this tab
# A B C D E F G H I J K L M N O P Q R S T U V W X Y Z