Song name
# A B C D E F G H I J K L M N O P Q R S T U V W X Y Z

Queens Of The Stone Age - Like Clockwork tab

Hello,


first tab for me, hope it's good enough. Josh plays this solo with a slide, 
standard tuning I guess.

-------------------------------------------------------------------------------
                             LIKE CLOCKWORK - Queens Of The Stone Age
-------------------------------------------------------------------------------
Tabbed by: marcoasis

Tuning: EADGBe


e|---------------------------8~~~~---6~~--6s8--------------------------------|
B|-6s8-------------------6s8---------------------8s10~-----------------------|
G|----5~~-5s8s5~~----5s8-----------------------------------------------------|
D|---------------------------------------------------------------------------|
A|---------------------------------------------------------------------------|
E|---------------------------------------------------------------------------|

e|--------------------------8~~~----6~s8-8s10~~------11s10-------8~~---------|
B|6s8------------------6s8------------------------------------10~-------------|
G|---5~--5s8s5~~----5s8-------------------------------------------------------|
D|---------------------------------------------------------------------------|
A|---------------------------------------------------------------------------|
E|---------------------------------------------------------------------------|

e|--8~~----------------------------------------------------------------------|
B|s8---s8------------8s6---8s6s8~~~--------6666666s5--6~s5-------------------|
G|-------8~~-------------8---------------------------5-----5--3~~s5----------|
D|---------------------------------------------------------------------------|
A|---------------------------------------------------------------------------|
E|---------------------------------------------------------------------------|

e|------------------s11-~~~~--11-11-11-11-11s10s8-------8~~------------------|
B|--------------6s8--------------------------------8s10----------------------|
G|--5~-s7~~-7s8--------------------------------------------------------------|
D|---------------------------------------------------------------------------|
A|---------------------------------------------------------------------------|
E|---------------------------------------------------------------------------|


e|-------------------------------------|
B|--11-11-11-11s10-8-s10~~---11s10s8~~-|
G|-------------------------------------|  x 2
D|-------------------------------------|
A|-------------------------------------|
E|-------------------------------------|

e|11s13s11----11s13s11----11s13s11--------------11s13s11----11s13s11--------------|
B|---------13----------13----------13--11~s13-------------13---------13---11~s13~~|
G|--------------------------------------------------------------------------------| 
D|--------------------------------------------------------------------------------|
A|--------------------------------------------------------------------------------|
E|--------------------------------------------------------------------------------|


e|-11s13s11----11s13s11----11s15s11----------------11s13s11----11s13s11--------------|
B|----------13----------13-----------13--11~s13-------------13-----------13---11s13~~|
G|-----------------------------------------------------------------------------------| 
D|-----------------------------------------------------------------------------------|
A|-----------------------------------------------------------------------------------|
E|-----------------------------------------------------------------------------------|


Legend:

~=vibrato
s=slide
Tap to rate this tab
# A B C D E F G H I J K L M N O P Q R S T U V W X Y Z