Song name
# A B C D E F G H I J K L M N O P Q R S T U V W X Y Z

Queens Of The Stone Age - Ode To Clarissa tab

*********************************************
* QUEENS OF THE STONE AGE - ODE TO CLARISSA *
*********************************************

Tabbed By Juan Angel De Camillis

This song is actually in C tunning but i tabbed it in standard tuning because is more
comfortable to play, you don't have to detune your guitar. The song it's not in order
and the timming is not right. Listen to the song to get it right.

*INTRO
Gtr 1
e|------------------------------------|
B|------------------------------------|
G|-------------------------------3-5--|
D|--5--5-5--5-5--5-5--5-5-5--5-5-3-5--|
A|--5--5-5--5-5--5-5--5-5-5--5-5-1-3--|
E|--3--3-3--3-3--3-3--3-3-3--3-3------|

Gtr 2
e|-------------------------------------------|
B|-------------------------------------------|
G|--------10-12fb-12-10---------------10-----|
D|--10-12---------------12--12--10-12----12--|
A|-------------------------------------------|
E|-------------------------------------------|
fb: Full bend.

*VERSES
e|------------------------------------|
B|------------------------------------|
G|------------------------------------|
D|--8-8--5-5-3-3-5-5-8-8-3-3-3--5-----|
A|--8-8--5-5-3-3-5-5-8-8-3-3-3--5-----|
E|--6-6--3-3-1-1-3-3-6-6-1-1-1--3-----|


*BRIDGE
Gtr 1
e|-----------------------------------|---|
B|-----------------------------------|---|
G|--5-5-5-5-5-5-5-5-5-5-5-5-5-5-5-5--|-6-|
D|--3-3-3-3-3-3-3-3-3-3-3-3-3-3-3-3--|-4-|
A|--3-3-3-3-3-3-3-3-3-3-3-3-3-3-3-3--|-4-|
E|-----------------------------------|---|

*Gtr 2
e|-----------------------------------|---|
B|-----------------------------------|---|
G|-----------------------------------|---|
D|--3-3-3-3-3-3-3-3-3-3-3-3-3-3-3-3--|-4-|
A|--3-3-3-3-3-3-3-3-3-3-3-3-3-3-3-3--|-4-|
E|--1-1-1-1-1-1-1-1-1-1-1-1-1-1-1-1--|-2-|


*CHORUS
e|--------------------------------|
B|--------------------------------|
G|------3-3-----3-3-----3-3--5-5--|
D|-5-5--3-3-3-3-3-3-3-3-3-3--5-5--|
A|-5-5--1-1-3-3-1-1-3-3-1-1--3-3--|
E|-3-3------1-1-----1-1-----------|


*OUTRO
e|------------------------------------|
B|------------------------------------|
G|-------------------------------3-5--|
D|--5--5-5--5-5--5-5--5-5-5--5-5-3-5--|
A|--5--5-5--5-5--5-5--5-5-5--5-5-1-3--|
E|--3--3-3--3-3--3-3--3-3-3--3-3------|
Tap to rate this tab
# A B C D E F G H I J K L M N O P Q R S T U V W X Y Z