Song name
# A B C D E F G H I J K L M N O P Q R S T U V W X Y Z

Queens Of The Stone Age - I Think I Lost My Headache tab

Tuning(low-to-high): (down 2 full steps) C F Bb Eb G c


intro                                                             8x
|----------------------------------------------------------------------|
|----------------------------------------------------------------------|
|----------8-------6---------------6-------5---------------2-----------|
|------7---------------7-------5---------------7-------3---------------|
|--0-----------0-----------0-----------0-----------0-------------------|
|----------------------------------------------------------------------|

   lead                     wait for the first 4 measures then come in  4x
|------------------------------------------------------------------------|
|-------10/16------14p10-------8/14-------12p8----6/10-------------------|
|------------------------------------------------------------------------|
|------------------------------------------------------------------------|
|------------------------------------------------------------------------|
|------------------------------------------------------------------------|

heavy part
                              12x
|----------------------------------------------------------------------|
|----------------------------------------------------------------------|
|----------------------------------------------------------------------|
|----------------------------------------------------------------------|
|--7---7-7---7--7---6-7/11b~-------------------------------------------|
|--5---5-5---5--5---4-5/9-b~-------------------------------------------|


chorus:                              4x
----------------------------------------|
----------------------------------------|
--------14------------ 13-----------10--|
-----14----14--------13----13-----------|
---12----------12--11------------8------|
-----------------0----------------------|


                                                                 1x
|----------------------------------------------------------------------|
|----------------------------------------------------------------------|
|----------------------------------------------------------------------|
|----------------------------------------------------------------------|
|--7---7-7---7--7---6-7/11b~------7---7-7---7--7-----------------------|
|--5---5-5---5--5---4-5/9-b~------5---5-5---5--5--0-5-3-0-3-5-0~-------|

|------------------------------------------------------------|
|------------------------------------------------------------|
|------------------------------------------------------------|
|------------------------------------------------------------|
|--7---7-7---7--7---6-7/11b~------7---7-7---7--7---6-7/11b~--|
|--5---5-5---5--5---4-5/9-b~------5---5-5---5--5---4-5/9-b~--|

|---------------------------------------------------------------|
|---------------------------------------------------------------|
|---------------------------------------------------------------|
|---------------------------------------------------------------|
|--7---7-7---7--7---6-7/11b~------7---7-7---7--7----------------|
|--5---5-5---5--5---4-5/9-b~------5---5-5---5--5--0-5-7-0-5-7-0-|

|------------------------------------------------------------|
|------------------------------------------------------------|
|------------------------------------------------------------|
|------------------------------------------------------------|
|--7---7-7---7--7---6-7/11b~------7---7-7---7--7---6-7/11b~--|
|--5---5-5---5--5---4-5/9-b~------5---5-5---5--5---4-5/9-b~--|

|---------------------------------------------------------------|
|---------------------------------------------------------------|
|---------------------------------------------------------------|
|---------------------------------------------------------------|
|--7---7-7---7--7---6-7/11b~------7---7-7---7--7----------------|
|--5---5-5---5--5---4-5/9-b~------5---5-5---5--5--0-5-3-0-3-5-0-|

|------------------------------------------------------------|
|------------------------------------------------------------|
|------------------------------------------------------------|
|------------------------------------------------------------|
|--7---7-7---7--7---6-7/11b~------7---7-7---7--7---6-7/11b~--|
|--5---5-5---5--5---4-5/9-b~------5---5-5---5--5---4-5/9-b~--|

|---------------------------------------------------------------|
|---------------------------------------------------------------|
|--------------------------------------------------7~-----------|
|--------------------------------------------------7~-----------|
|--7---7-7---7--7---6-7/11b~------7---7-7---7--7---5~-----------|
|--5---5-5---5--5---4-5/9-b~------5---5-5---5--5----------------|

chorus:                              4x
----------------------------------------|
----------------------------------------|
--------14------------ 13-----------10--|
-----14----14--------13----13-----------|
---12----------12--11------------8------|
-----------------0----------------------|


reapeat this for as long as u like cause on the CD it jsut fades onto trumpets and stuff like that...
|----------------------------------------------------------------------|
|----------------------------------------------------------------------|
|----------8-------6---------------6-------5---------------2-----------|
|------7---------------7-------5---------------7-------3---------------|
|--0-----------0-----------0-----------0-----------0-------------------|
|----------------------------------------------------------------------|

outro leads:


guitar 2 just plays this till the end of the song
|----------------------------------------------------------------------|
|-------10/16------14p10-------8/14-------12p8----6/10-----------------|
|----------------------------------------------------------------------|
|----------------------------------------------------------------------|
|----------------------------------------------------------------------|
|----------------------------------------------------------------------|


then the a third guitar comes in...
|----------------------------------------------------------------------|
|----------------------------------------------------------------------|
|----------------------------------------------------------------------|
|----10/16----14p10------8/14-------12p8----10h12-12fb(14)rb(12)p10----|
|----------------------------------------------------------------------|
|----------------------------------------------------------------------|

|----------------------------------------------------------------------|
|----------------------------------------------------------------------|
|-------------------------------------------10-12-13-12-10-------------|
|----10/16----14p10------8/14-------12p8-------------------------------|
|----------------------------------------------------------------------|
|----------------------------------------------------------------------|

|----------------------------------------------------------------------|
|----------------------------------------------------------------------|
|-------------------------------------------10-12-13-12-10-------------|
|----10/16----14p10------8/14-------12p8-------------------------------|
|----------------------------------------------------------------------|
|----------------------------------------------------------------------|

|----------------------------------------------------------------------|
|----------------------------------------------------------------------|
|------------------------------------------10h12p10--------------------|
|----10/16----14p10------8/14-------12p8-------------------------------|
|----------------------------------------------------------------------|
|----------------------------------------------------------------------|

|----------------------------------------------------------------------|
|----------------------------------------------------------------------|
|-------------------------------------------10h12p10-------------------|
|----10/16----14p10------8/14-------12p8-------------------------------|
|----------------------------------------------------------------------|
|----------------------------------------------------------------------|

|----------------------------------------------------------------------|
|----------------------------------------------------------------------|
|----------------------------------------------------------------------|
|----10/16----14p10------8/14-------12p8-------6/10--------------------|
|----------------------------------------------------------------------|
|----------------------------------------------------------------------|


|------------------------------------------------------------------------------------------------|
|------------------------------------------------------------------------------------------------|
|---------------------------------------------------------------10-------------------------------|
|----10/16----14p10------8/14-------12p8---------10-10-10h12p10----12p10-12p10--12p10h12---------|
|-------------------------------------------10h12-----------------------------12-----------------|
|-----------------------------------------12-----------------------------------------------------|

|----------------------------------------------------------------------|
|----------------------------------------------------------------------|
|----------------------------------------------------------------------|
|----10/16----14p10------8/14-------12p8-------6/10--------------------|
|----------------------------------------------------------------------|
|----------------------------------------------------------------------|

|----------------------------------------------------------------------|
|----------------------------------------------------------------------|
|--------------------------------------------------10-12p10h12---------|
|----10/16----14p10------8/14-------12p8------10-12--------------------|
|-------------------------------------------12-------------------------|
|----------------------------------------------------------------------|

|----------------------------------------------------------------------|
|----------------------------------------------------------------------|
|----------------------------------------------------10----------------|
|----10/16----14p10------8/14-------12p8--------10-12--12--------------|
|------------------------------------------10-12---------12------------|
|----------------------------------------------------------------------|

|----------------------------------------------------------------------|
|----------------------------------------------------------------------|
|----------------------------------------------------------------------|
|----10/16----14p10------8/14-------12p8----6/10-----------------------|
|----------------------------------------------------------------------|
|----------------------------------------------------------------------|

|----------------------------------------------------------------------|
|----------------------------------------------------------------------|
|----------------------------------------------------------------------|
|----10/16----14p10------8/14-------12p8----6/10-----------------------|
|----------------------------------------------------------------------|
|----------------------------------------------------------------------|

|----------------------------------------------------------------------|
|----------------------------------------------------------------------|
|----------------------------------------------------------------------|
|----10/16----14p10------8/14-------12p8--------10-12-10---------------|
|----------------------------------------------------------------------|
|----------------------------------------------------------------------|
keep getting faster and faster
|----------------------------------------------------------------------|
|----------------------------------------------------------------------|
|----------------------------------------------------------------------|
|----10/16----14p10------8/14-------12p8--------10h12p10---------------|
|----------------------------------------------------------------------|
|----------------------------------------------------------------------|

|----------------------------------------------------------------------|
|----------------------------------------------------------------------|
|----------------------------------------------------------------------|
|----10/16----14p10------8/14-------12p8--------6/10-------------------|
|----------------------------------------------------------------------|
|----------------------------------------------------------------------|

|----------------------------------------------------------------------|
|----------------------------------------------------------------------|
|----------------------------------------------------------------------|
|----10/16----14p10------8/14-------12p8--------10---------------------|
|-------------------------------------------------12p10h12-------------|
|----------------------------------------------------------------------|

|----------------------------------------------------------------------|
|----------------------------------------------------------------------|
|----------------------------------------------------------------------|
|----10/16----14p10------8/14-------12p8----10h12p10-------------------|
|----------------------------------------------------------------------|
|----------------------------------------------------------------------|
just play this last line a few times till the end
|----------------------------------------------------------------------|
|----------------------------------------------------------------------|
|----------------------------------------------------------------------|
|----10/16----14p10------8/14-------12p8----6/10-----------------------|
|----------------------------------------------------------------------|
|----------------------------------------------------------------------|


well, thats it, its a great great song and i could not find a tab with the leads in the 
so i did it my self, hope it helps  :)
you can reach me with questions or comments at nbl030@comcast.net
Tap to rate this tab
# A B C D E F G H I J K L M N O P Q R S T U V W X Y Z