Song name
# A B C D E F G H I J K L M N O P Q R S T U V W X Y Z

Queens Of The Stone Age - Bronze tab

     The bronze is a more unknown song by queens of the stone age it off
     the Complication album .Ive tryd my best and this is it hope its ok.
     Comment me please ans tell me what you think thanks.This is a bass tab

 INTRO 4X
G]-----------------------------------------|
D]-----------------------------------------|
A]-13-13-13-13-1-1-1-1-12-12-12-12-0-0-0-0-|
E]-----------------------------------------|


 VERSE PART 1 8X
G]-----------------------------------------|
D]-----------------------------------------|
A]-13-13-13-13-1-1-1-1-12-12-12-12-0-0-0-0-|
E]-----------------------------------------|


 VERSE PART 2 8X              4X
G]-------------------------  -----------------------------------------|
D]-------------------------  -----------------------------------------|
A]-11-11-11-11-11-11-11-11-  -13-13-13-13-1-1-1-1-12-12-12-12-0-0-0-0-|
E]-------------------------  -----------------------------------------|

 VERSE 2 PART 1 8X                           8X
G]----------------------------------------- -------------------------|
D]----------------------------------------- -------------------------|
A]-13-13-13-13-1-1-1-1-12-12-12-12-0-0-0-0- -11-11-11-11-11-11-11-11-|
E]----------------------------------------- -------------------------|


 CHORAS 7X
G]---------------------------------------------------------------------------|
D]---------11-11-----------14-14---------------------------------------------|
A]-11-11-11-----11-14-14-14-----14-13-13-13-13-13-13-13-13-13-13-13-13-13-13-|
E]---------------------------------------------------------------------------|

-----------------15----|
---------------15--15--|
-13-13-13-13-13------1-|
-----------------------|


 FINISH
Tap to rate this tab
 
# A B C D E F G H I J K L M N O P Q R S T U V W X Y Z