Song name
# A B C D E F G H I J K L M N O P Q R S T U V W X Y Z

Queens Of The Stone Age - Long Slow Goodbye tab

***********************************************
* QUEENS OF THE STONE AGE - LONG SLOW GOODBYE *
***********************************************

*Album: Lullabies To Paralyze (2005)
*Tunning: Normal (E-A-D-G-B-e)

Words & Music by: Josh Homme, Troy Van Leeuwen, Joey Castillo & Mark Lanegan.

Transcribed by Juan Angel De Camillis.

The timming isn't correct, listen to the song to get it right.
The song isn't in order, there are the most important part of the song.

*INTRO:
Gtr 1 (Clean)
e|-0-0-0-0-0-0-0-0-|-0-0-0-0-0-0-0-0-|-0-0-0-0-0-0-0-0-0-|-0-0-0-0-0-0-0-0-|
B|-0-0-0-0-0-0-0-0-|-0-0-0-0-0-0-0-0-|-0-0-0-0-0-0-0-0-0-|-0-0-0-0-0-0-0-0-|
G|-1-1-1-1-1-1-1-1-|-1-1-1-1-1-1-1-1-|-1-1-1-1-1-1-1-1-1-|-1-1-1-1-1-1-1-1-|
D|-2-2-2-2-2-2-2-2-|-2-2-2-2-2-2-2-2-|-2-2-2-2-2-2-2-2-2-|-2-2-2-2-2-2-2-2-|
A|-2-2-2-2-2-2-2-2-|-2-2-2-2-2-2-2-2-|-2-2-2-2-2-2-2-2-2-|-2-2-2-2-2-2-2-2-|
E|-0-0-0-0-0-0-0-0-|-0-0-0-0-0-0-0-0-|-0-0-0-0-0-0-0-0-0-|-0-0-0-0-0-0-0-0-|


*VERSE:
Gtr 1 (Clean)
e|-0-0-0-0-0-0-0-0-|-0-0-0-0-0-0-0-0-|-0-0-0-0-0-0-0-0-0-|-0-0-0-0-0-0-0-0-|
B|-0-0-0-0-0-0-0-0-|-0-0-0-0-0-0-0-0-|-0-0-0-0-0-0-0-0-0-|-0-0-0-0-0-0-0-0-|
G|-1-1-1-1-1-1-1-1-|-1-1-1-1-1-1-1-1-|-1-1-1-1-1-1-1-1-1-|-1-1-1-1-1-1-1-1-|
D|-2-2-2-2-2-2-2-2-|-2-2-2-2-2-2-2-2-|-2-2-2-2-2-2-2-2-2-|-2-2-2-2-2-2-2-2-|
A|-2-2-2-2-2-2-2-2-|-2-2-2-2-2-2-2-2-|-2-2-2-2-2-2-2-2-2-|-2-2-2-2-2-2-2-2-|
E|-0-0-0-0-0-0-0-0-|-0-0-0-0-0-0-0-0-|-0-0-0-0-0-0-0-0-0-|-0-0-0-0-0-0-0-0-|

e|-0-0-0-0-0-0-0-0-|-3-3-3-3-3-3-3-3-|-2-2-2-2-2-2-2-2-2-|-0-0-0-0-0-0-0-0-|
B|-0-0-0-0-0-0-0-0-|-0-0-0-0-0-0-0-0-|-3-3-3-3-3-3-3-3-3-|-0-0-0-0-0-0-0-0-|
G|-1-1-1-1-1-1-1-1-|-0-0-0-0-0-0-0-0-|-2-2-2-2-2-2-2-2-2-|-1-1-1-1-1-1-1-1-|
D|-2-2-2-2-2-2-2-2-|-0-0-0-0-0-0-0-0-|-0-0-0-0-0-0-0-0-0-|-2-2-2-2-2-2-2-2-|
A|-2-2-2-2-2-2-2-2-|-2-2-2-2-2-2-2-2-|-0-0-0-0-0-0-0-0-0-|-2-2-2-2-2-2-2-2-|
E|-0-0-0-0-0-0-0-0-|-3-3-3-3-3-3-3-3-|-------------------|-0-0-0-0-0-0-0-0-|


*CHORUS 1:
Gtr 1 
e|-0-0-0-0-0-0-0-0-|-----------------|-2-2-2-2-2-2-2-2-2-|-0-0-0-0-0-0-0-0-|
B|-0-0-0-0-0-0-0-0-|-1-1-1-1-1-1-1-1-|-3-3-3-3-3-3-3-3-3-|-0-0-0-0-0-0-0-0-|
G|-1-1-1-1-1-1-1-1-|-0-0-0-0-0-0-0-0-|-2-2-2-2-2-2-2-2-2-|-1-1-1-1-1-1-1-1-|
D|-2-2-2-2-2-2-2-2-|-2-2-2-2-2-2-2-2-|-0-0-0-0-0-0-0-0-0-|-2-2-2-2-2-2-2-2-|
A|-2-2-2-2-2-2-2-2-|-3-3-3-3-3-3-3-3-|-0-0-0-0-0-0-0-0-0-|-2-2-2-2-2-2-2-2-|
E|-0-0-0-0-0-0-0-0-|-----------------|-------------------|-0-0-0-0-0-0-0-0-|
                   "...the long slow goodbye..."

Gtr 2 (Distortion)
e|---7--5b---|---7---|---(7)---|---7---5b---|---(5)---|-------4b-|---8--7---|---5--4---|------4---|
B|-----------|-------|---------|------------|---------|---5------|----------|----------|---5------|
G|-----------|-------|---------|------------|---------|----------|----------|----------|----------|
D|-----------|-------|---------|------------|---------|----------|----------|----------|----------|
A|-----------|-------|---------|------------|---------|----------|----------|----------|----------|
E|-----------|-------|---------|------------|---------|----------|----------|----------|----------|


*CHORUS 2:
Gtr 1 
e|-0-0-0-0-0-0-0-0-|-----------------|-2-2-2-2-2-2-2-2-2-|-0-0-0-0-0-0-0-0-|
B|-0-0-0-0-0-0-0-0-|-1-1-1-1-1-1-1-1-|-3-3-3-3-3-3-3-3-3-|-0-0-0-0-0-0-0-0-|
G|-1-1-1-1-1-1-1-1-|-0-0-0-0-0-0-0-0-|-2-2-2-2-2-2-2-2-2-|-1-1-1-1-1-1-1-1-|
D|-2-2-2-2-2-2-2-2-|-2-2-2-2-2-2-2-2-|-0-0-0-0-0-0-0-0-0-|-2-2-2-2-2-2-2-2-|
A|-2-2-2-2-2-2-2-2-|-3-3-3-3-3-3-3-3-|-0-0-0-0-0-0-0-0-0-|-2-2-2-2-2-2-2-2-|
E|-0-0-0-0-0-0-0-0-|-----------------|-------------------|-0-0-0-0-0-0-0-0-|
                   "...the long slow goodbye..."

Gtr 2 (Distortion)
e|------4b---|---(4)---|---5b---|---5--------|---7---5b---|---(5)---|---4b--|---(4)---|
B|---5-------|---------|--------|--------4---|------------|---------|-------|---------|
G|-----------|---------|--------|------------|------------|---------|-------|---------|
D|-----------|---------|--------|------------|------------|---------|-------|---------|
A|-----------|---------|--------|------------|------------|---------|-------|---------|
E|-----------|---------|--------|------------|------------|---------|-------|---------|

Gtr 1 
e|-0-0-0-0-0-0-0-0-|-----------------|-2-2-2-2-2-2-2-2-2-|-0-0-0-0-0-0-0-0-|
B|-0-0-0-0-0-0-0-0-|-1-1-1-1-1-1-1-1-|-3-3-3-3-3-3-3-3-3-|-0-0-0-0-0-0-0-0-|
G|-1-1-1-1-1-1-1-1-|-0-0-0-0-0-0-0-0-|-2-2-2-2-2-2-2-2-2-|-1-1-1-1-1-1-1-1-|
D|-2-2-2-2-2-2-2-2-|-2-2-2-2-2-2-2-2-|-0-0-0-0-0-0-0-0-0-|-2-2-2-2-2-2-2-2-|
A|-2-2-2-2-2-2-2-2-|-3-3-3-3-3-3-3-3-|-0-0-0-0-0-0-0-0-0-|-2-2-2-2-2-2-2-2-|
E|-0-0-0-0-0-0-0-0-|-----------------|-------------------|-0-0-0-0-0-0-0-0-|
                   "...the long slow goodbye...."

Gtr 2 (Distortion)
e|---7--5b---|---(5)---|---7---|---(7)---|---7---5b---|---(5)---|---7b--|---(7)---|---7---5b---|---(5)---|
B|-----------|---------|-------|---------|---5--------|---------|-------|---------|---5--------|---------|
G|-----------|---------|-------|---------|------------|---------|-------|---------|------------|---------|
D|-----------|---------|-------|---------|------------|---------|-------|---------|------------|---------|
A|-----------|---------|-------|---------|------------|---------|-------|---------|------------|---------|
E|-----------|---------|-------|---------|------------|---------|-------|---------|------------|---------|


*BRIDGE
Gtr 1
e|-----------------|-----------------|-----------------|-----------------|
B|-0-0-0-0-0-0-0-0-|-0-0-0-0-0-0-0-0-|-0-0-0-0-0-0-0-0-|-0-0-0-0-0-0-0-0-|
G|-4-4-4-4-4-4-4-4-|-4-4-4-4-4-4-4-4-|-4-4-4-4-4-4-4-4-|-4-4-4-4-4-4-4-4-|
D|-2-2-2-2-2-2-2-2-|-2-2-2-2-2-2-2-2-|-2-2-2-2-2-2-2-2-|-2-2-2-2-2-2-2-2-|
A|-----------------|-----------------|-----------------|-----------------|
E|-----------------|-----------------|-----------------|-----------------|

Gtr 2 (Distortion)
e|--10b--|--(10)--|--7--|--(7)--|--5b--|--12b--12-0--|--(0)--|--7--|--5b--|--(5)--|--10b--|--4--|
B|-------|--------|-----|-------|------|-------------|-------|-----|------|-------|-------|-----|


*OUTRO
Gtr 1
e|-----------------|-----------------|-----------------|-----------------|-----|
B|-0-0-0-0-0-0-0-0-|-0-0-0-0-0-0-0-0-|-0-0-0-0-0-0-0-0-|-0-0-0-0-0-0-0-0-|--0--|
G|-4-4-4-4-4-4-4-4-|-4-4-4-4-4-4-4-4-|-4-4-4-4-4-4-4-4-|-4-4-4-4-4-4-4-4-|--4--|
D|-2-2-2-2-2-2-2-2-|-2-2-2-2-2-2-2-2-|-2-2-2-2-2-2-2-2-|-2-2-2-2-2-2-2-2-|--2--|
A|-----------------|-----------------|-----------------|-----------------|-----|
E|-----------------|-----------------|-----------------|-----------------|-----|
Tap to rate this tab
# A B C D E F G H I J K L M N O P Q R S T U V W X Y Z