Song name
# A B C D E F G H I J K L M N O P Q R S T U V W X Y Z

Queens Of The Stone Age - This Lullaby tab

                                 THIS LULLABY
                     As recorded by Queens of the Stone Age
                   (From the 2005 Album LULLABIES TO PARALYZE)

Words and Music by Queens of the Stone Age
Transcribed by GasPanic

Gtr I (E A D G B E) - 'Untitled'

   Intro
    
  
    EM
||-----------|-----------||-^7-------|-(7)----||
||o-------8--|-------8--o||-^8-------|-(8)----||
||-----9-----|----9------||-^9-------|-(9)----||
||-----------|-9---------||-^9-------|-(9)----||
||o-7--------|----------o||-^7-------|-(7)----||
||-----------|-----------||----------|--------||


   Verse
    
    Em                    B
   
||-----------|----------|----------|-----------|
||o-------8--|-------8--|----------|-----------|
||-----9-----|----9-----|-------8--|-------8---|
||-----------|-9--------|----9-----|----9------|
||o-7--------|----------|----------|-9---------|
||-----------|----------|-7--------|-----------|


  B                      Em
 
|----------|-----------|----------|-----------||
|----------|-----------|-------8--|-------8--o||
|-------8--|-----------|----9-----|----9------||
|----9-----|----9------|----------|-9---------||
|----------|-9-----10--|-7--------|----------o||
|-7--------|-----------|----------|-----------||


 Bridge
  G                           D
   
|-------------|-------------|-------------|-------------|
|---------12--|---------12--|-------------|-------------|
|-----12------|-----12------|---------11--|---------11--|
|-------------|-12----------|-----12------|-----12------|
|-10----------|-------------|-------------|-12----------|
|-------------|-------------|-10----------|-------------|


                                   To Coda
  C                         Em
  
|-----------|-------------|----------|-7------||
|-----------|-------------|----------|--------||
|--------9--|-------------|-------8--|--------||
|----10-----|-----10------|----9-----|--------||
|-----------|-10----------|----------|--------||
|-8---------|---------10--|-7--------|--------||


 End Verse
  Em
 
|----------|----------|----------|-----------|
|-------8--|-------8--|-------8--|-----------|
|----9-----|----9-----|----9-----|----9------|
|----------|-9--------|----------|-9---------|
|-7--------|----------|-7--------|-------10--|
|----------|----------|----------|-----------|


                           Coda
  Em
|----------|-7--------|-12-------|-(12)-----||
|-------8--|----8-----|----------|----------||
|----9-----|----------|----------|----------||
|----------|----------|----------|----------||
|-7--------|-------7--|--7-------|--(7)-----||
|----------|----------|----------|----------||


 Outro
  
  Em
|----------|----------|----------|----------|
|-------8--|-------8--|----------|----------|
|----9-----|----9-----|-------8--|-------8--|
|----------|-9--------|----9-----|----9-----|
|-7--------|----------|----------|-9--------|
|----------|----------|-7--------|----------|


  Em
 
|----------|----------|-12-------|-(12)----*|
|-------8--|-------8--|----------|---------*|
|----9-----|----9-----|----------|---------*|
|----------|-9--------|----------|---------*|
|-7--------|----------|--7-------|--(7)----*|
|----------|----------|----------|---------*|
Tap to rate this tab
# A B C D E F G H I J K L M N O P Q R S T U V W X Y Z