Song name
# A B C D E F G H I J K L M N O P Q R S T U V W X Y Z

Queens Of The Stone Age - Blood Is Love tab

Help us improve GuitareTab! Take a short survey!
Song:
Blood Is Love TAB (ONLY MAIN RIFF!!!)

Artist:
Queens of the Stone Age

Main riff: 

eb|---------------------------------------------------------------------------|
Bb|---------------------------------------------------------------------------|
Gb|--12-12---12-12---12-12---12-12---11-11---11-11---11-11---11-11----4-4-----|
Db|--12-12---12-12---12-12---12-12----8--8---11-11----8--8---11-11----5-5-----|
Ab|--10-10---10-10---10-10---10-10----9--9----9--9----9--9----9--9----5-5-----|
Eb|-0-----0-0-----0-0-----0-0-----0-0----0-0-----0-0-----0-0------0-0----0-0--| 


|--------------------------------------------------------------------------|
|--------------------------------------------------------------------------|
|-4-4---4-4---4-4---------------------------5-5---5-5---5-5---5-5----------|
|-5-5---5-5---5-5---7-7---5-5---7-7---5-5---5-5---5-5---5-5---5-5---0-2----|
|-5-5---5-5---5-5---4-4---4-4---4-4---4-4---3-3---3-3---3-3---3-3---1-1----|
|----0-0---0-0---0-0---0-0---0-0---0-0---0-0---0-0---0-0---0-0---0-0---0-0-|


|---------------------.||
|---------------------.||
|---------------------.||
|-0-0---0-2---0-0-----.||
|-1-1---1-1---1-1-----.||
|----0-0---0-0---0-0--.||

I hope that someone will check this out. This TAB is only for main riff and Im sure
thats the closest to the original. You may also experiment with full cords to originate
a better sound. 
The song is great and I love it!!!  

Serbia of the Stone Age off the Stone of the Queens Age!

Posted by: 
BranislavMIRKOV                                                mirkovbran@gmail.com
Related for Blood Is Love tab