Song name
# A B C D E F G H I J K L M N O P Q R S T U V W X Y Z

Queens Of The Stone Age - Give The Mule What He Wants tab

                $$$$$$$$$$$$$$$$$$$$$$$$$$$$$$$$$$$$$$$$$
                {[{[{[{GIVE THE MULE WHAT HE WANTS}]}]}]}
                $$$$$$$$$$$$$$$$$$$$$$$$$$$$$$$$$$$$$$$$$

CD: Queens of the Stone Age(1998)
tuning: C F Bb Eb G C
tabbed by: **** Romo

hey QOTSA fans- im sure youve heard this line before but, this is my first tab!
I just wanted to tab this since its such a great song, and no one over here has tabbed
well(and im hoping i can do better...). hope ya like it and try and make any suggestions
what to add!


Intro:
(guitar 1)
---------------------------------------|
---------------------------------------|
--18b20-18--pb20-18--13~~13~~13/16-----|
---------------------------------------|
---------------------------------------|
---------------------------------------|

(guitar 2)
---------------------------------------|
---------------------------------------|
-----------6-8-6-----------------------|
----2-2-2--6-8-6--6--6-6-6-6-6-6-6-6-6-|
----2-2-2--4-6-4--6--6-6-6-6-6-6-6-6-6-|
----0-0-0---------4--4-4-4-4-4-4-4-4-4-|

(guitar 2)
-------------------------|
-------------------------|
-----(9)-----------------|
------9-----11-11-11-----|
------7-(7)-11-11-11-(7)-|
---------0--9--9--9---0--|

(guitar 2)**and heres the main riff**
---------------------|
---------------------|
-------(9)-----------|
--------9------11-11-|
--------7-9h11-11-11-|
---7h9---------9--9--|

(guitar 2)**heres a filler**
---------------------|
---------------------|
---------------------|
---------------------|
-------7-------7-----|
---7h9---9-7h9-------|

chorus:
(guitar 1)
---------------------------------------|
---------------------------------------|
--18b20-18--pb20-18--13~~13~~13/16-----|
---------------------------------------|
---------------------------------------|
---------------------------------------|

(guitar 2)
-------------------------------|
-------------------------------|
---8-6-66-8-6------------------|
---8-6-66-8-6-6-6-6-6-6-6-6-6--|
---6-4-44-6-4-6-6-6-6-6-6-6-6--|
--------------4-4-4-4-4-4-4-4--|
Tap to rate this tab
 
# A B C D E F G H I J K L M N O P Q R S T U V W X Y Z