Song name
# A B C D E F G H I J K L M N O P Q R S T U V W X Y Z

Queens Of The Stone Age - You Cant Quit Me Baby tab

Verse Riff 1:
 C|-----------------------------------------||
 G|-----------------------------------------||
Eb|---12-12-12-12-12-12-12--9-9-9-9-9-9-9---||
Bb|-----------------------------------------||
 F|---10-10-10-10-10-10-10--7-7-7-7-7-7-7---||
 C|-----------------------------------------||


Verse Riff 2:
 C|------------------------------------||
 G|------------------------------------||
Eb|---14-14-14-14-14--13-13-13-13-13---||
Bb|------------------------------------||
 F|---12-12-12-12-12--11-11-11-11-11---||
 C|------------------------------------||


Slide Lead:
 C|-------------------||
 G|-------------------||
Eb|---9/12-----12\9---||
Bb|-------------------||
 F|-------------------||
 C|-------------------||


Riff 2:
 C|---------------------------------------------------------------12-12---|
 G|---14b----------14--14b---------14--14b---------14--14b----------------|
Eb|-------13b--------------13b-------------13b-------------13b------------|
Bb|-----------11b--------------11b-------------11b-------------11---------|
 F|-----------------------------------------------------------------------|
 C|-----------------------------------------------------------------------|

 C|-----------------------------------------------------------------||
 G|---14b---------14--14b---------14--14b---------14-14b-14brbrbr---||
Eb|-------13b-------------13b-------------13b-----------------------||
Bb|-----------11b-------------11b-------------11b-------------------||
 F|-----------------------------------------------------------------||
 C|-----------------------------------------------------------------||


Chorus:
Guitar 1.
 C|-----------------------------------------------------------------------||
 G|-----------------------------------------------------------------------||
Eb|---9-9-9-9-9-9-9-8-8-8-8-8-8-8-8-14-14-14-14-14-14-14-14-14-14-14-16---||
Bb|-----------------------------------------------------------------------||
 F|---7-7-7-7-7-7-7-6-6-6-6-6-6-6-6-12-12-12-12-12-12-12-12-12-12-12-14---||
 C|-----------------------------------------------------------------------||

Guitar 2.
 C|------------------------------------------------------------------------------||
 G|------------------------------------------------------------------------------||
Eb|---9-9-9-9---9-9-9-11-11-11-11------11-11--14-14-14-14-------14-14-14-14-16---||
Bb|------------------------------------------------------------------------------||
 F|---7-7-7-7-5h7-7-7--9--9--9--9-7h9---9--9--12-12-12-12-10h12-12-12-12-12-14---||
 C|------------------------------------------------------------------------------||


Outro Solo:
 C|------------------------------------------------------------------|
 G|---16-17-19--16-17-19--16-19-16-16-19-16--17-19-17-19--17-19-17---|
Eb|------------------------------------------------------------------|
Bb|------------------------------------------------------------------|
 F|------------------------------------------------------------------|
 C|------------------------------------------------------------------|

 C|-------------------------------------------------------------------------|
 G|---19-17-19-17-19-17--16-19-16-19-16-19-16-19-16-19--17-19-16-19-17-19---|
Eb|-------------------------------------------------------------------------|
Bb|-------------------------------------------------------------------------|
 F|-------------------------------------------------------------------------|
 C|-------------------------------------------------------------------------|

 C|----------------------------------------------------------------------|
 G|---16-19-17-19--16-16-14-13-14-16p14p13-------------13-16p14p13p------|
Eb|----------------------------------------14-13-14-13--------------14---|
Bb|----------------------------------------------------------------------|
 F|----------------------------------------------------------------------|
 C|----------------------------------------------------------------------|

 C|-----------------------------13-14-16-14-13---||
 G|----------------13-14--13-14------------------||
Eb|---12brbrbrbrbr-------------------------------||
Bb|----------------------------------------------||
 F|----------------------------------------------||
 C|----------------------------------------------||
Tap to rate this tab
# A B C D E F G H I J K L M N O P Q R S T U V W X Y Z