Song name
# A B C D E F G H I J K L M N O P Q R S T U V W X Y Z

Queens Of The Stone Age - I Wanna Make It Wit Chu Live tab

Artist: Queens Of The Stone Age
Song: I Wanna Make It Wit Chu (Live)
Album: Over The Years And Through The Woods

This is the little intro solo thing. I doubt if it's 100% correct, as this
is my first tab, but it sounds pretty close to me. I'll try to figure out the longer
toward the end of the song later.

Standard Tuning (I didn't feel like tuning my guitar down to C)

|-------------------------------------------------------------------------|
|-/8~~-7h8-7-----------------8--------------------------------------------|
|----------9~~-7-9--9br--79-9-7-9-----------------------------------------|
|---------------------------------7-5-7p5-88-5-88-5-------5-7-5-----------|
|---------------------------------------------------7p5-7-------7p5-7-7br-|
|-------------------------------------------------------------------------|

|-------------------------------------------------------------------------|
|-------------------------------------------------------------------------|
|-------------------------------------------------------------------------|
|---5--------5------------------------------------------------------------|
|-75-7-5-7---5------------------------------------------------------------|
|----------5-3------------------------------------------------------------|

Any questions or corrections (or if you've figured out the rest of the solo)
email me at ralphwiggum9823@aol.com
Tap to rate this tab
 
# A B C D E F G H I J K L M N O P Q R S T U V W X Y Z