Song name
# A B C D E F G H I J K L M N O P Q R S T U V W X Y Z

Queens Of The Stone Age - Rickshaw tab

-------------------------------------------------------------------------------
			     Rickshaw - Queens of the Stone Age
-------------------------------------------------------------------------------
Originally a Desert Sessions song but occasionally played live by QOTSA. Please feel 
to leave comments or suggestions on how to make this tab better.

Tabbed by: Michael Doyle

Verse
e|---------------------------------------------------------------------------|
B|---------------------------------------------------------------------------|
G|--------------------------7-7-7-7-7-7-7-7-7-7-7-7--------------------------|
D|--2-2-2-2-2-2-5-5-5-5-5-5-5-5-5-5-5-5-5-5-5-5-5-5--------------------------|
A|--2-2-2-2-2-2-5-5-5-5-5-5-3-3-3-3-3-3-3-3-3-3-3-3--------------------------|
E|--0-0-0-0-0-0-3-3-3-3-3-3--------------------------------------------------|

Chorus
e|---------------------------------------------------------------------------|
B|---------------------------------------------------------------------------|
G|--------9--9-9-9-9-/12--5-5-5-5-5-5-5-5-5-5-5------------------------------|
D|--7--7--9--9-9-9-9-/12--5-5-5-5-5-5-5-5-5-5-5------------------------------|
A|--7--7--7--7-7-7-7-/10--3-3-3-3-3-3-3-3-3-3-3------------------------------|
E|--5--5---------------------------------------------------------------------|
Tap to rate this tab
 
# A B C D E F G H I J K L M N O P Q R S T U V W X Y Z