Song name
# A B C D E F G H I J K L M N O P Q R S T U V W X Y Z

Queens Of The Stone Age - Sick Sick Sick tab

SICK SICK SICK-QUEENS OF THE STONE AGE-ERA VULGARIS
Tabbed by:Frusciante_50
Standard Tuning

This is my fourth or fifth QOTSA song tabbed in standard tuning

Intro:

e|-------------------------------------------------------------------------|
B|-------------------------------------------------------------------------|
G|-3--3--3--3------3--3--3--3----------------------------------------------|
D|-5--5--5--5------5--5--5--5----------------------------------------------|
A|-3--3--3--3------3--3--3--3----------------------------------------------|
E|-3--3--3--3------3--3--3--3----------------------------------------------|

Verses (just play this chord in the pattern that follows the vocal part)

e|---|
B|---|
G|-3-|
D|-5-|
A|-3-|
E|-3-|

Chorus:

e|-------------------------------------------------------------------------|
B|-------------------------------------------------------------------------|
G|-3--3--3---5--7--7---3--3--3---5--7--7---3--3--3---5--7--7---3--3--3-----|
D|-5--5--5-------------5--5--5-------------5--5--5-------------5--5--5-----|
A|-3--3--3-------------3--3--3-------------3--3--3-------------3--3--3-----|
E|-3--3--3-------------3--3--3-------------3--3--3-------------3--3--3-----|

e|-----------|
B|-----------|
G|-5--7--7---|
D|-----------|
A|-----------|
E|-----------|

After chorus riff (in C standard, notes are pulled off to open Bb, but this is how you 
it in standard)

e|-------------------------------------------------------------------------|
B|-------------------------------------------------------------------------|
G|-------------------------------------------------------------------------|
D|-------------------------------------------------------------------------|
A|-1-1-1-1---3p1--3p1--3p1-----5--5---3p1----------------------------------|
E|--------------------------3----------------------------------------------|

Thats all the riffage in this song

ENJOY!
Tap to rate this tab
# A B C D E F G H I J K L M N O P Q R S T U V W X Y Z