Song name
# A B C D E F G H I J K L M N O P Q R S T U V W X Y Z

Queens Of The Stone Age - Into The Hollow tab

Troy Van guitar:

e|--------5/7---------|    ...But I cant wait forever
B|-5/7\5/7------------|       I've always been alone
G|--------------------| 8x    A fool believes he's clever
D|--------------------|
A|--------------------|
E|--------------------|

|----5/7-14\10\7~ ---|       Don't you wanna go into the Hollow ?
|-5/7----------------|       I won't go it alone
|--------------------| 3x
|--------------------|
|--------------------|
|--------------------|

|----5/7-14/10/7~ --10/7--10/7~ -|      Aren't you gonna follow ?
|-5/7----------------------------|
|--------------------------------|  1x
|--------------------------------|
|--------------------------------|
|--------------------------------|

|----------------5/7-14------------|
|-14^v~ --5~ --7---------14\5/8~ --|
|----------------------------------|
|----------------------------------|
|----------------------------------|
|----------------------------------|

|--------5/7---------|      ...I break what I've already borrowed
|-5/7\5/7------------|         That's why I always go
|--------------------| 8x      alone into tomorrow
|--------------------|
|--------------------|
|--------------------|

|----5/7-14\10\7~ ---|         Don't you wanna go into the Hollow ?
|-5/7----------------|         Don't wanna go alone,
|--------------------| 3x
|--------------------|
|--------------------|
|--------------------|

|----5/7-14/10/7~ --10/7--10/7~ -|          aren't you gonna follow
|-5/7----------------------------|
|--------------------------------|  1x
|--------------------------------|
|--------------------------------|
|--------------------------------|

|-10\7-10\7--10\9-10\9--10/12--14\7--10/12-19~ -17~ \10------|
|------------------------------------------------------------|
|------------------------------------------------------------| 2x
|------------------------------------------------------------|
|------------------------------------------------------------|
|------------------------------------------------------------|

|--------5/7---------|        Into the Hollow
|-5/7\5/7------------|
|--------------------| 2x
|--------------------|
|--------------------|
|--------------------|

|----5/7-14\10\7~ ---|
|-5/7----------------|
|--------------------| 1x
|--------------------|
|--------------------|
|--------------------|

|--------5/7---------|       Into the Hollow
|-5/7\5/7------------|
|--------------------| 2x
|--------------------|
|--------------------|
|--------------------|

|----5/7-14\10\7~ ---|
|-5/7----------------|
|--------------------| 1x
|--------------------|
|--------------------|
|--------------------|

|-12\~ --------------|
|--------------------|
|--------------------|
|--------------------|
|--------------------|
|--------------------|

By doug0110
Tap to rate this tab
# A B C D E F G H I J K L M N O P Q R S T U V W X Y Z