Song name
# A B C D E F G H I J K L M N O P Q R S T U V W X Y Z

Queens Of The Stone Age - Born To Hula tab

Tabbed and taken from thefade.net. 

Tuning - C F Bb Eb G C 

riff 1: 
-----------------------------------------| 
-----------------------------------------| 
-----------------------------------------| 
---12p0-13p0-14p0-15p0-------------------| 
-----------------------8p0-8p0-8p0-8p0---| 
-----------------------------------------| 

riff 2: 
-----------------------------------------| 
-----------------------------------------| 
-----------------------------------------| 
---12p0-13p0-12p0-12p0-------------------| 
-----------------------8p0-8p0-8p0-8p0---| 
-----------------------------------------| 

riff 3: 
------------------------------------------| 
------------------------------------------| 
------------------------------------------| 
---12p0-12p0-12p0-12p0--------------------| 
------------------------8p0-8p0-8p0-8p0---| 
------------------------------------------| 

lead (keyboard written for guitar): 
---------------| 
---------------| 
---14----------| 
---------------| 
----------15---| 
---------------| 

riff 1 2x 

riff 2 1x 

riff 1 1x 

riff 2 (w/lead): 
Follow trails of you to here 
Every mile takes you my way 
Rolling faster if we can 
Roll 

Tables turnin all the time 
I'm the dog at your feet 
Out of sight and out of time 
Yours 

riff 3: 
You're the one 
You're the one 

riff 2: 
You're the one 

riff 3: 
You're the one 

solo 1 (lead under solo): 
-------------------------------------------------------------------------| 
-------------------------------------------------------------------------| 
-----14---16-17-16-14-12-14-16--14---16-16-16-14-14--12-12-11-12-14-16---| 
-------------------------------------------------------------------------| 
---0---------------------------------------------------------------------| 
-------------------------------------------------------------------------| 

-----------------------------------------------------------------| 
-----------------------------------------------------------------| 
---14-16-17-17--17\16-14\12-12\11--14-12-11-12-11-9-11-7-9b--7---| 
-----------------------------------------------------------------| 
-----------------------------------------------------------------| 
-----------------------------------------------------------------| 

-------------------------------------------------------------------| 
------17h20----------20-22------------17h20----------20-22---------| 
------------17h19----------19---------------17h19----------19------| 
---19-------------19----------19---19-------------19----------19---| 
-------------------------------------------------------------------| 
-------------------------------------------------------------------| 

---------------------------------------------------------------------| 
------20b------------20-22-20-------22--20--20-----------------------| 
---------19-------------------17-17------------17-19-19b--17-17------| 
---19--------19---19--------------------------------------------19---| 
---------------------------------------------------------------------| 
---------------------------------------------------------------------| 

--------------------------------------------------------------17b-17b---|
------------------------------------------------------------------------| 
---21-19-17-19b-19b----17h19p17-17----17-19b-19b---17-19---17-----------| 
--------------------19-------------19-----------------------------------| 
------------------------------------------------------------------------| 
------------------------------------------------------------------------| 

---17br-----17br-----17br--------| 
---------------------------------| 
--------19br-----19br-----19br---| 
---------------------------------| 
---------------------------------| 
---------------------------------| 

riff 2: 
Colored bottles in a line 
Every single's blinkin my way 
Rolling faster all the while 

You're the one 
You're the one 

riff 1: 
You're the one 

riff 2: 
You're the one 

riff 4: 
-------------------------------------------------------------------------------| 
-------------------------------------------------------------------------------| 
---2-2-2-2-2-2-2-2-2-2-6-6-6-6-6-6-6-6-5-5-5-5-4-4-4-4-3-3-3-3-3-3-3-3-3-3-3---| 
---2-2-2-2-2-2-2-2-2-2-6-6-6-6-6-6-6-6-5-5-5-5-4-4-4-4-3-3-3-3-3-3-3-3-3-3-3---| 
---0-0-0-0-0-0-0-0-0-0-4-4-4-4-4-4-4-4-3-3-3-3-2-2-2-2-1-1-1-1-1-1-1-1-1-1-1---| 
-------------------------------------------------------------------------------| 

-------------------------------------| 
-------------------------------------| 
---6-6-6-6-6-6-6-6-5-5-5-5-3-3-3-3---| 
---6-6-6-6-6-6-6-6-5-5-5-5-3-3-3-3---| 
---4-4-4-4-4-4-4-4-3-3-3-3-1-1-1-1---| 
-------------------------------------| 

riff 4 lead (keyboard and Josh written for guitar): 
--------------------------------------| 
--------------------------------------| 
--------------------------------------| 
---11----15-14-13-12----15-14-12-11---| 
--------------------------------------| 
--------------------------------------| 

solo 2 (riff 4 and riff 4 lead under): 
------17----------------------------------------17-17-17--------------------| 
---------17----20----------------------------------------17----17-20-20br---| 
------------------17-19-16--14h16p14----16---14-----------------------------| 
------------19-----------------------16---------------------19--------------| 
---x------------------------------------------------------------------------| 
----------------------------------------------------------------------------| 

-------------------------------------17---------------------------------| 
---17h20p17-17--------------------------17------------------------------| 
---------------17h19p17-17----17-19-----------19-17--------17-----------| 
---------------------------19--------------19-------19--19----19-19br---| 
------------------------------------------------------------------------| 
------------------------------------------------------------------------| 

---17------------------------------------17----------------------------------| 
------17----20--17-17-20-17h20p17-----------17----20----17-20-17-------------| 
----------------------------------19-19--------------19----------19----------| 
---------19------------------------------------19-------------------17brbr---| 
-----------------------------------------------------------------------------| 
-----------------------------------------------------------------------------| 

---------------------------17br--------------------------------------------| 
---------------------------------------------------------------------------| 
---------------------------------------------------14-----------------14---| 
---7b-------------/12b-------------------------/14----------------/14------| 
----------4b---------------------------------------------------------------| 
--------------------------------12--------------------12-------------------| 

4:00 
---17-17-17--------------------------------------------| 
------------17-----------------------------------------| 
------------------17-19p17--19----17--21-19-17-19------| 
---------------19--------------19-----------------19---| 
-------------------------------------------------------| 
-------------------------------------------------------| 

pause 

bass break 

solo 3 (left channel): 
----------------------------------------------------------| 
----------------------------------------------------------| 
----------------------------------------------------------| 
-------7-5---------------------7-5------------------------| 
---0-0-----7-3-0-3-3-7-7---0-0-----7-3-0-3-3-7-7----------| 
----------------------------------------------------------| 

solo.... 

riff 5: 
---------------------------| 
---------------------------| 
---------------------------| 
---------------------------| 
---0-0-7h9p7-------7h9p7---| 
-------------8-8-8---------| 
Tap to rate this tab
 
# A B C D E F G H I J K L M N O P Q R S T U V W X Y Z