Song name
# A B C D E F G H I J K L M N O P Q R S T U V W X Y Z

Queensberry - I Cant Stop Feeling tab

Help us improve GuitareTab! Take a short survey!
It's my first tab so don't be so hard.
I think it's okay like this.
If you want, you can use a capo on 1st fred.
Have fun and leave a rating please!

------------------------------------------------------------|
-----3-------3-------3-----------3-------3-------3----------|
---2---2---2---2---2---2-------2---2---2---2---2---2--------|   INTRO 1x
-0---------------4-----------0---------------4--------------|   Verse 2x
---------2---------------------------2----------------------|
------------------------------------------------------------|

------------------------------------------------------------|
-----3-------3-------3-----------3-------3-------3----------|
---2---2---2---2---2---2-------2---2---2---2---2---2----2---|   Prechorus
-0---------------4-----------0---------------4------------4-|   1x
---------2---------------------------2----------------------|
------------------------------------------------------------|

am                em       am              G
Now you prove me wrong, stumbling in your acting
am               em           G
Tellin' me that we've grown apart.


am                    em  am                    em            am     C
I don't wanna let you go, I will doing all the same, but you know I can't
       G
stop feeling.
Am                 em     am                   em        am        C
I will make it easier, so I will say whatever you wanna hear but I can't
      G
stop feeling.

------------------------------------------------------------|
-----3-------3-------3-----------3-------3-------3----------|
---2---2---2---2---2---2-------2---2---2---2---2---2--------|
-0---------------4-----------0---------------4--------------|   Strophe 2x
---------2---------------------------2----------------------|
------------------------------------------------------------|

------------------------------------------------------------|
-----3-------3-------3-----------3-------3-------3----------|
---2---2---2---2---2---2-------2---2---2---2---2---2----2---|   Prechorus
-0---------------4-----------0---------------4------------4-|   1x
---------2---------------------------2----------------------|
------------------------------------------------------------|

am                em       am              G
Now you prove me wrong, stumbling in your acting
am               em           G
Tellin' me that we've grown apart.


am                    em  am                    em            am     C
I don't wanna let you go, I will doing all the same, but you know I can't
       G
stop feeling.
Am                 em     am                   em        am        C
I will make it easier, so I will say whatever you wanna hear but I can't
      G
stop feeling.

Am      C          G
  but I can't stop feeling.
Related for I Cant Stop Feeling tab