Song name
# A B C D E F G H I J K L M N O P Q R S T U V W X Y Z

Queensryche - Tribe tab

Help us improve GuitareTab! Take a short survey!
Track 6 on Queensryche's album of the same name. |----| = measures

  Intro:
e|------------------------------------|------------------------------------|
B|------------------------------------|------------------------------------|
G|------------------------------------|------------------------------------|
D|-5-5-5--3-6-6-6--3-5-5-5--3-5-5-5--3|-5-5-5--3-6-6-6--3-5-5-5--3-5-5-5--3|
A|-5-5-5--3-6-6-6--3-5-5-5--3-5-5-5--3|-5-5-5--3-6-6-6--3-5-5-5--3-5-5-5--3|
E|-3-3-3--1-4-4-4--1-3-3-3--1-3-3-3--1|-3-3-3--1-4-4-4--1-3-3-3--1-3-3-3--1|
                                     The face..
                                               The face..

  Verse 1:
e|------------------------------------|-----------------------------------|
B|------------------------------------|-----------------------------------|
G|------------------------------------|-----------------------------------|
D|------------------------------------|-----------------------------------|
A|------------------------------------|-----------------------------------|
E|-3-3-3--1-4-4-4--1-3-3-3--1-3-3-3--1|-3-3-3--1-4-4-4--1-3-3-3--1-3-3-3--|
  Taken to..


e|----------------------------------------|
B|----------------------------------------|
G|----------------------------------------|
D|----------------------------------------|
A|----------------------------------------|
E|1-3-3-3--1-4-4-4--1-3-3-3--1-3-3-3--1---|
                                      is

e|------------------------------------|
B|------------------------------------|
G|------------------------------------|
D|-5-5-5--3-6-6-6--3-5-5-5--3-5-5-5--3|
A|-5-5-5--3-6-6-6--3-5-5-5--3-5-5-5--3|
E|-3-3-3--1-4-4-4--1-3-3-3--1-3-3-3--1|

  Verse 2:
e|------------------------------------|------------------------------------|
B|------------------------------------|------------------------------------|
G|------------------------------------|-----------------------------------0|
D|------------------------------------|-----------------------------------1|
A|------------------------------------|-----------------------------------1|
E|-3-3-3--1-4-4-4--1-3-3-3--1-3-3-3--1|-3-3-3--1-4-4-4--1-3-3-3--1-3-3-3--1|
  Travel..                                                               God

  Chorus 1:
e|--------------------------------------------------------------------
B|--------------------------------------------------------------------
G|5555555555555555-3333333333333333-1111111111111111-7777777777777777-
D|5555555555555555-3333333333333333-1111111111111111-7777777777777777-
A|--------------------------------------------------------------------
E|--------------------------------------------------------------------


e|--------------------------------------------------------------------
B|--------------------------------------------------------------------
G|5555555555555555-3333333333333333-1111111111111111-7777777777777777-
D|5555555555555555-3333333333333333-1111111111111111-7777777777777777-
A|--------------------------------------------------------------------
E|--------------------------------------------------------------------

e|--------------------------------------------------|
B|--------------------------------------------------|
G|5555555555555555-7777777777777777-9999999999999999|
D|5555555555555555-7777777777777777-9999999999999999|
A|--------------------------------------------------|
E|--------------------------------------------------|
 
  Bridge:
e|------------------------------------|
B|------------------------------------|
G|------------------------------------|
D|-5-5-5--3-6-6-6--3-5-5-5--3-5-5-5--3|
A|-5-5-5--3-6-6-6--3-5-5-5--3-5-5-5--3|
E|-3-3-3--1-4-4-4--1-3-3-3--1-3-3-3--1|

e|------------------------------------|------------------------------------|
B|------------------------------------|------------------------------------|
G|------------------------------------|------------------------------------|
D|------------------------------------|------------------------------------|
A|------------------------------------|------------------------------------|
E|-3-3-3--1-4-4-4--1-3-3-3--1-3-3-3--1|-3-3-3--1-4-4-4--1-3-3-3--1-3-3-3--1|
  Passing..                                                            peace

 Chorus 2:
e|--------------------------------------------------------------------
B|--------------------------------------------------------------------
G|5555555555555555-3333333333333333-1111111111111111-7777777777777777-
D|5555555555555555-3333333333333333-1111111111111111-7777777777777777-
A|--------------------------------------------------------------------
E|--------------------------------------------------------------------


e|--------------------------------------------------------------------
B|--------------------------------------------------------------------
G|5555555555555555-3333333333333333-1111111111111111-7777777777777777-
D|5555555555555555-3333333333333333-1111111111111111-7777777777777777-
A|--------------------------------------------------------------------
E|--------------------------------------------------------------------

e|--------------------------------------------------|
B|--------------------------------------------------|
G|5555555555555555-7777777777777777-9999999999999999|
D|5555555555555555-7777777777777777-9999999999999999|
A|--------------------------------------------------|
E|--------------------------------------------------|

  Solo:
I will tab this out within the next couple of days.

e|------------------------------------|------------------------------------|
B|------------------------------------|------------------------------------|
G|------------------------------------|------------------------------------|
D|-5-5-5--3-6-6-6--3-5-5-5--3-5-5-5--3|-5-5-5--3-6-6-6--3-5-5-5--3-5-5-5--3|
A|-5-5-5--3-6-6-6--3-5-5-5--3-5-5-5--3|-5-5-5--3-6-6-6--3-5-5-5--3-5-5-5--3|
E|-3-3-3--1-4-4-4--1-3-3-3--1-3-3-3--1|-3-3-3--1-4-4-4--1-3-3-3--1-3-3-3--1|
                                     The face..                          The
                                               The face..
                                                          The answer..

e|------------------------------------|------------------------------------|
B|------------------------------------|------------------------------------|
G|------------------------------------|------------------------------------|
D|-5-5-5--3-6-6-6--3-5-5-5--3-5-5-5--3|-5-5-5--3-6-6-6--3-5-5-5--3-5-5-5--3|
A|-5-5-5--3-6-6-6--3-5-5-5--3-5-5-5--3|-5-5-5--3-6-6-6--3-5-5-5--3-5-5-5--3|
E|-3-3-3--1-4-4-4--1-3-3-3--1-3-3-3--1|-3-3-3--1-4-4-4--1-3-3-3--1-3-3-3--1|
   face..                            The face..                          The
          The face..                           The face..
                   The answer..      The answer..       The answer..

e|------------------------------------|---------|
B|------------------------------------|---------|
G|------------------------------------|---------|
D|-5-5-5--3-6-6-6--3-5-5-5--3-5-5-5---|-33----33|
A|-5-5-5--3-6-6-6--3-5-5-5--3-5-5-5---|-33----33|
E|-3-3-3--1-4-4-4--1-3-3-3--1-3-3-3---|-11----11|
  face..
         The face..
Related for Tribe tab