Guitaretab - guitar tabs
Song name
# A B C D E F G H I J K L M N O P Q R S T U V W X Y Z

Queensryche - I Will Remember tab

#----------------------------------PLEASE NOTE--------------------------------#
#This file is the author's own work and represents their interpretation of the#
#song. You may only use this file for private study, scholarship, or research.#
#-----------------------------------------------------------------------------#

Date: Thu, 12 Mar 1998 13:59:34 -0500
From: medi@gte.net (by way of cal woods)
Subject: TAB: Q/Queensryche/I_Will_Remember.Tab

Artist: Queensryche
Song: I Will Remember
Album: Rage For Order
Transcribed: Doug McDonald (Miss You Buddy!)
Submitted: Sam Maston


Intro and Verses (Vocal Tacet first time):

e|-1------1------1-0------0-----3-1------1-----1-0-----0-----5---
B|---3------3--------3------3-------3------3-------3-----3-------
G|-----2------2--------3------3-------2------2-------3-----3-----
D|-0---------------0--------------0--------------0---------------
A|---------------------------------------------------------------
E|---------------------------------------------------------------
		                                         ~
e|-1-----1------1-0-----0-----3-1-----1----0--|
B|---3-----3--------3-----3-------3-----3--3--|
G|-----2-----2--------3-----3-------2------3--|
D|-0--------------0-------------0----------0--|
A|--------------------------------------------|
E|--------------------------------------------|

Chorus:

e|--------------------------0-----------------------------
B|-------3--------------3-----3---------3--------------3--
G|-----0----0---0-----0---------0-----0----0---0-----0----
D|---3--------3-----3---------------3--------3-----3------
A|-1--------------0---------------1--------------0--------
E|--------------------------------------------------------

e|--------------------------0---------------------------------------|
B|-------3--------------3-----3----------3-------3-------3--------3-|
G|-----0----0---0-----0---------0------0-------0-------0--------0---|
D|---3--------3-----3----------------3-------3-------3--------3-----|
A|-1--------------0----------------1-------0------------------------|
E|-------------------------------------------------3--------1-------|

Bridge:


				*
e|--1--|--5--|--1--|--8--|
B|--3--|--6--|--3--|--6--|				Repeat Chord
progression twice
G|--2--|--7--|--2--|--5--|		Listen to the song for the timing
D|-(0)-|-----|-(0)-|-----|			On repeat, hold the last
chord(*)
A|-----|-----|-----|-----|
E|-----|-----|-----|-----|

Repeat Verse
Repeat Chorus
Repeat Bridge

Solo

e|--------------------------------------------------------------
B|-8--6--------8--6---------------------------------8--6--------
G|------8--5--------8--7-7(8)--7--5--5(7)----------------8--5---
D|-----------8-----------------------------7--8--7------------8-
A|--------------------------------------------------------------
E|--------------------------------------------------------------

e|-------------5--8--10--8--10--12------------6--------
B|-8--6---6--8----------------------8--6--------8--6---
G|------8--------------------------------8--5--------8-
D|-----------------------------------------------------
A|-----------------------------------------------------
E|-----------------------------------------------------

e|-6---5-6-5---------------------5--6--5--6--8-
B|---8-------8--6-----------6--8---------------
G|-----------------8--7--9---------------------
D|---------------------------------------------
A|---------------------------------------------
E|---------------------------------------------
                                        *
e|--10--8--10---12--13--12--13---15----17---|
B|------------------------------------------|
G|------------------------------------------|   * Hold Note
D|------------------------------------------|
A|------------------------------------------|
E|------------------------------------------|

Repeat Verse
Repeat Chorus
Repeat Chorus (rit. at the end)
		  ~
e|--1--||
B|--3--||
G|--2--||
D|--0--||
A|--0--||
E|-----||

Intro and Verse
There's a cold wind out tonight
The chill of distant eyes
An orbit survey finds...you mind

Chorus:
I will remember
You will remember
The star that came tonight

Bridge

Verse:
There's a thought that fills your mind
A vision of a time
When knowledge was confined
And then we wonder how machines
Can steal each other's dreams
>From point that are unseen....its real

Chorus:
I will remember
You will remember
The star that came tonight
Oh can't you see the light
Of the knowing star

Solo

Verse:
When you gaze at the evening sky
And you're reaching out with your mind
You might see the nation's eyes
Don't hide....its you

Chorus:
I will remember
You will remember
The star that came tonight



[ Tab from: http://www.guitaretab.com/q/queensryche/15358.html ]
Related for I Will Remember tab
I Will Remember chords by Queensryche