Song name
# A B C D E F G H I J K L M N O P Q R S T U V W X Y Z

Queensryche - Silent Lucidity tab

I gave this song an intermediate rating because you need alot of fast movement when changing chords.

You can use a flatpick for this song, but I find it more difficult. I prefer fingerstyle
beacuse of the speed the notes are played at. When you reach the chorus, strum with the
back of your fingernail, you should only be strumming downstrokes. Whenever you see a =
hold the note for as long as the sign is there. Also I managed to figure out the solo in
between the first chorus and the third verse, which I didn't see anywhere else, so that's
here, too. The distance between each pair of || represents one measure, and each -
represents one sixteenth. Notice how at the end of each measure before the first chorus
you have one quarter of a beat to position your fingers for the next measure. That's why
this is intermediate. Enjoy!

  Intro:
e|--7--7--5--5--5-|--7--7--5--5--5-|--2--2----------|--2--2----------|
B|---0--0--0--0---|---0--0--0--0---|---0--0-2--2--2-|---0--0-2--2--2-|
G|0=--0--0--0--0--|0=--0--0--0--0--|---------0--0---|---------0--0--0|
D|----------------|----------------|2=--2--2--2--2--|2=--2--2--2--2--|
A|----------------|----------------|----------------|----------------|
E|----------------|----------------|----------------|----------------|


  First Verse:
e|--7--7--5--5--5-|--7--7--5--5--5-|--2--2----------|--2--2----------|
B|---0--0--0--0---|---0--0--0--0---|---0--0-2--2--2-|---0--0-2--2--2-|
G|0=--0--0--0--0--|0=--0--0--0--0--|---------0--0---|---------0--0--0|
D|----------------|----------------|2=--2--2--2--2--|2=--2--2--2--2--|
A|----------------|----------------|----------------|----------------|
E|----------------|----------------|----------------|----------------|
  Hush now..

e|--7--7--5--5--5-|--7--7--5--5--5-|--2--2----------|--2--2----------|
B|---0--0--0--0---|---0--0--0--0---|---0--0-2--2--2-|---0--0-2--2--2-|
G|0=--0--0--0--0--|0=--0--0--0--0--|---------0--0---|---------0--0--0|
D|----------------|----------------|2=--2--2--2--2--|2=--2--2--2--2--|
A|----------------|----------------|----------------|----------------|
E|----------------|----------------|----------------|----------------|


e|--0--0----------|--0--0----------|--0--0----------|--0--0----------|
B|--------3--3--3-|--------3--3--3-|--------3--3--3-|--------3--3--3-|
G|---0--0--0--0--0|---0--0--0--0--0|---0--0--0--0--0|---0--0--0--0--0|
D|----------------|----------------|----------------|----------------|
A|3=--3--3--3--3--|3=--3--3--3--3--|0=--0--0--0--0--|0=--0--0--0--0--|
E|----------------|----------------|----------------|----------------|
     Your mind..

e|--0--0----------|--0--0----------|--0--0----------|--0--0----------|
B|--------3--3--3-|--------3--3--3-|--------3--3--3-|--------3--3--3-|
G|---0--0--0--0---|---0--0--0--0---|---0--0--0--0---|---0--0--0--0---|
D|----------------|----------------|----------------|----------------|
A|3=--3--3--3--3--|3=--3--3--3--3--|0=--0--0--0--0--|0=--0--0--0--0--|
E|----------------|----------------|----------------|----------------|
                                                                  over..

e|X---------------|
B|3===============|
G|0===============|
D|5===============|
A|X---------------|
E|X---------------|
                    Or has it just begun?

  Interlude:
e|----------------|----------------|--2--2----------|--2--2----------|
B|----------------|----------------|---0--0-3--3--3-|---0--0-3--3--3-|
G|--4--4--2--2--2-|--4--4--2--2--2-|---------0--0---|---------0--0---|
D|---0--0--0--0---|---0--0--0--0---|----0--0--0--0--|----0--0--0--0--|
A|----------------|----------------|----------------|----------------|
E|3=--3--3--3--3--|3=--3--3--3--3--|0=--------------|0=--------------|


  Second Verse:
e|----------------|----------------|--2--2----------|--2--2----------|
B|----------------|----------------|---0--0-3--3--3-|---0--0-3--3--3-|
G|--4--4--2--2--2-|--4--4--2--2--2-|---------0--0---|---------0--0---|
D|---0--0--0--0---|---0--0--0--0---|----0--0--0--0--|----0--0--0--0--|
A|----------------|----------------|----------------|----------------|
E|3=--3--3--3--3--|3=--3--3--3--3--|0=--------------|0=--------------|
  There's a..

e|----------------|----------------|--2--2----------|--2--2----------|
B|----------------|----------------|---0--0-3--3--3-|---0--0-3--3--3-|
G|--4--4--2--2--2-|--4--4--2--2--2-|---------0--0---|---------0--0---|
D|---0--0--0--0---|---0--0--0--0---|----0--0--0--0--|----0--0--0--0--|
A|----------------|----------------|----------------|----------------|
E|3=--3--3--3--3--|3=--3--3--3--3--|0=--------------|0=--------------|

e|--0--0----------|--0--0----------|--0--0----------|--0--0----------|
B|--------3--3--3-|--------3--3--3-|--------3--3--3-|--------3--3--3-|
G|---0--0--0--0---|---0--0--0--0---|---0--0--0--0---|---0--0--0--0---|
D|----------------|----------------|----------------|----------------|
A|3=--3--3--3--3--|3=--3--3--3--3--|0=--0--0--0--0--|0=--0--0--0--0--|
E|----------------|----------------|----------------|----------------|
  It's a place..

e|--0--0----------|--0--0----------|--0--0----------|--0--0----------|
B|--------3--3--3-|--------3--3--3-|--------3--3--3-|--------3--3--3-|
G|---0--0--0--0---|---0--0--0--0---|---0--0--0--0---|---0--0--0--0---|
D|----------------|----------------|----------------|----------------|
A|3=--3--3--3--3--|3=--3--3--3--3--|0=--0--0--0--0--|0=--0--0--0--0--|
E|----------------|----------------|----------------|----------------|
                                             dimension

  Chorus:
e|3===============|====1===========|3===============|====1===========|
G|2===============|====0===========|2===============|====0===========|
D|0===============|====2===========|0===============|====2===========|
A|X---------------|----3===========|X---------------|----3===========|
E|X---------------|----X-----------|X---------------|----X-----------|
  I---------------|--------Will be.....you                  Am gonna..
                                        I-----------|---------

e|2===============|====0===========|2===============|====X-X-X-X-X---|
B|3===============|====1===========|3===============|====X-X-X-X-X---|
G|2===============|====0===========|2===============|====9=7=5=X-5===|
D|0===============|====2===========|0===============|====109=5=X-5===|
A|X---------------|----3===========|X---------------|====X-X-X-7=X---|
E|X---------------|----X-----------|X---------------|----X-X-X-X-X---|
   through               Will........night             Am.......you
      I-----------|--------             I-----------|----
  
e|X---------------|
B|X---------------|
G|X---------------|
D|X---------------|
A|X---------------|
E|X---------------|
  In Silent Lucidity

  Interlude:
e|----------------|----------------|
B|----------------|----------------|
G|--4--4--2--2--2-|--4--4--2--2--2-|
D|---0--0--0--0---|---0--0--0--0---|
A|----------------|----------------|
E|3=--3--3--3--3--|3=--3--3--3--3--|

  Solo:
e|----------------|----------------|----------------|----------------|
B|4---8-6---118---|8-6---4---1=====|==========1111-3|4-1=======4---8-|
G|----------------|--------3-------|----------------|----------------|
D|----------------|----------------|----------------|----------------|
A|----------------|----------------|----------------|----------------|
E|----------------|----------------|----------------|----------------|

e|----------------|------/-/---------|--/-/-----------/-/-|
B|6---118---8-6---|4---3-/4/31=======|3-/4/31=======3-/4/3|
G|----------------|--3---/-/---------|--/-/-----------/-/-|
D|----------------|------/-/---------|--/-/-----------/-/-|
A|----------------|------/-/---------|--/-/-----------/-/-|
E|----------------|------/-/---------|--/-/-----------/-/-|


e|----------/-/-----|------/-/---------|--/-/-----------/-/-|
B|1=======3-/4/31===|====3-/4/31=======|3-/4/31=======3-/4/3|
G|----------/-/-----|------/-/---------|--/-/-----------/-/-|
D|----------/-/-----|------/-/---------|--/-/-----------/-/-|
A|----------/-/-----|------/-/---------|--/-/-----------/-/-|
E|----------/-/-----|------/-/---------|--/-/-----------/-/-|
          Visualize...   

e|----------/-/-----|------/-/---------|--/-/-------------|
B|1=======3-/4/31===|====3-/4/31=======|3-/4/31=======0===|
G|----------/-/-----|------/-/---------|--/-/-------------|
D|----------/-/-----|------/-/---------|--/-/-------------|
A|----------/-/-----|------/-/---------|--/-/-------------|
E|----------/-/-----|------/-/---------|--/-/-------------|


e|----------------|
B|================|
G|----------------|
D|----------------|
A|----------------|
E|----------------|

  Third Verse:
e|----------------|----------------|--2--2----------|--2--2----------|
B|----------------|----------------|---0--0-3--3--3-|---0--0-3--3--3-|
G|--4--4--2--2--2-|--4--4--2--2--2-|---------0--0---|---------0--0---|
D|---0--0--0--0---|---0--0--0--0---|----0--0--0--0--|----0--0--0--0--|
A|----------------|----------------|----------------|----------------|
E|3=--3--3--3--3--|3=--3--3--3--3--|0=--------------|0=--------------|
      If you...

e|----------------|----------------|--2--2----------|--2--2----------|
B|----------------|----------------|---0--0-3--3--3-|---0--0-3--3--3-|
G|--4--4--2--2--2-|--4--4--2--2--2-|---------0--0---|---------0--0---|
D|---0--0--0--0---|---0--0--0--0---|----0--0--0--0--|----0--0--0--0--|
A|----------------|----------------|----------------|----------------|
E|3=--3--3--3--3--|3=--3--3--3--3--|0=--------------|0=--------------|
      The walls...

e|--0--0----------|--0--0----------|--0--0----------|--0--0----------|
B|--------3--3--3-|--------3--3--3-|--------3--3--3-|--------3--3--3-|
G|---0--0--0--0---|---0--0--0--0---|---0--0--0--0---|---0--0--0--0---|
D|----------------|----------------|----------------|----------------|
A|3=--3--3--3--3--|3=--3--3--3--3--|0=--0--0--0--0--|0=--0--0--0--0--|
E|----------------|----------------|----------------|----------------|
      Living...

e|--0--0----------|--0--0----------|--0--0----------|--0--0----------|
B|--------3--3--3-|--------3--3--3-|--------3--3--3-|--------3--3--3-|
G|---0--0--0--0---|---0--0--0--0---|---0--0--0--0---|---0--0--0--0---|
D|----------------|----------------|----------------|----------------|
A|3=--3--3--3--3--|3=--3--3--3--3--|0=--0--0--0--0--|0=--0--0--0--0--|
E|----------------|----------------|----------------|----------------|
      A round...

  Chorus:                                   
e|3===============|====1===========|3===============|====1===========|
G|2===============|====0===========|2===============|====0===========|
D|0===============|====2===========|0===============|====2===========|
A|X---------------|----3===========|X---------------|----3===========|
E|X---------------|----X-----------|X---------------|----X-----------|
  I---------------|--------Will be.....you                  Am gonna..
                                        I-----------|---------

e|2===============|====0===========|2===============|====X-X-X-X-X---|
B|3===============|====1===========|3===============|====X-X-X-X-X---|
G|2===============|====0===========|2===============|====9=7=5=X-5===|
D|0===============|====2===========|0===============|====109=5=X-5===|
A|X---------------|----3===========|X---------------|====X-X-X-7=X---|
E|X---------------|----X-----------|X---------------|----X-X-X-X-X---|
   through               Will........night             Am.......you
      I-----------|--------             I-----------|----

  Ending:
e|X---------------|----------------|----------------|----------------|
B|X---------------|----------------|----------------|----------------|
G|X---------------|--4--4--2--2--2-|--4--4--2--2--2-|--4--4--2--2--2-|
D|X---------------|---0--0--0--0--0|---0--0--0--0--0|---0--0--0--0--0|
A|X---------------|----------------|----------------|----------------|
E|X---------------|3=--3--3--3--3--|3=--3--3--3--3--|3=--3--3--3--3--|

e|----------------|----------------|----------------|
B|----------------|----------------|----------------|
G|--4--4--2--2--2-|--4--4--2--2--2-|--4--4=======---|
D|---0--0--0--0--0|---0--0--0--0--0|---0------------|
A|----------------|----------------|----------------|
E|3=--3--3--3--3--|3=--3--3--3--3--|3=--3-----------|
Tap to rate this tab
 
# A B C D E F G H I J K L M N O P Q R S T U V W X Y Z