Song name
# A B C D E F G H I J K L M N O P Q R S T U V W X Y Z

Queensryche - I Am I tab

Help us improve GuitareTab! Take a short survey!
 I am I by queensryche- from live evolution        INTRO: mandolin

  E--0---0---0---0---0---0------------------0---0---0---0---0---0---0-
  A--5-5-5-5-5-5-5-5-5-5-5-5-5/10-8-8\------4-4-4-4-4-4-4-4-4-4-4-4-4-
  D-------------------------------------------------------------------
  G-------------------------------------2-----------------------------
  B-------------------------------------0-----------------------------
  E-------------------------------------------------------------------

   VERSE: clean
  E-------------------------------------------------------------------
  A-------------------------------------------------------------------
  D-------2-2-2--2-2-2--2-2-2--2-2------------------------------------
  G-------2-2-2--2-2-2--2-2-2--2-2------------------------------------
  B---1---0-0-0--0-0-0--0-0-0--0-0----1-------------------------------
  E-0-------------------------------0---------------------------------

   CHORUS: lots of bend
  E-------------------------------------------------------------------
  A-------------------------------------------------------------------
  D-2b-2v-6-8/9-8v-4-6b-3-3b-2v-6-8/9-8v------------------------------
  G-------------------------------------------------------------------
  B-------------------------------------------------------------------
  E-------------------------------------------------------------------

   2nd part chorus:
   -------------------------------------------------------------------
   -------------------------------------------------------------------
   -2b-2v-6-8/9-8v-4-6b-3-3b-2v-6-8/9-11v-----------------------------
   -------------------------------------------------------------------
   -------------------------------------------------------------------
   -------------------------------------------------------------------
Related for I Am I tab