Song name
# A B C D E F G H I J K L M N O P Q R S T U V W X Y Z

Queensryche - Jet City Woman tab

-------------------------------------------------------------------------------
			     Jet City Woman - Queensryche
-------------------------------------------------------------------------------

Tabbed by: Jonbon207

I checked out the other tab and thought it was good but decided i'd tab
out (what I thought was) a more correct version of the intro.
Then decided "what the heck, why not do more." So i did a little more.
I'll admit, though, i used a guy's cover on youtube
(what i thought he was playing) to help me on some parts cuz it was good.
Enjoy.

************************************

| /   Slide Up
| \   Slide Down
| h   Hammer-on
| p   Pull-off
| ~   Vibrato
|(#)  Harmonic
| b   Bend
| r   Release
| wh  Whammy 

************************************

Intro:

e|----------------------(12)--------------------------------------------------|
B|----(12)--(7)~~~~~~----------(12)~~~~~~~~~~---11b12r11b12r11b12r11b12r11----|
G|------------------------------------wh--wh----------------------------------|
D|----------------------------------------------------------------------------|
A|----------------------------------------------------------------------------|
E|----------------------------------------------------------------------------|

e|----------------------------------(5)~~~bar dive---------|
B|--9~~--7-7/9----4-4b5r4--2/4-2---------------------------|
G|---------------------------------------------------------|
D|---------------------------------------------------------|
A|---------------------------------------------------------|
E|---------------------------------------------------------|

e|--4----6-----7--------4----6-----9--------11-----14------------------|
B|--7b9--9b11--10b12----7b9--9b11--12b14----14b16~~~~~~16r14--12--14---|
G|---------------------------------------------------------------------|
D|---------------------------------------------------------------------|
A|---------------------------------------------------------------------|
E|---------------------------------------------------------------------|


e|------------------------------14b16--14--12h14--11h12------11--------|
B|--12h14p12--11---12p11---------------------------------14------12----|
G|------------------------11-------------------------------------------|
D|---------------------------------------------------------------------|
A|---------------------------------------------------------------------|
E|---------------------------------------------------------------------|

Verse:

e|--------------------------------------------------|
B|----0----0----0----0----0---0----0---0------------|
G|---4----4----4----4----4---4----4-----3-----------|
D|--6----6----4----4----3---3----2----2-------------|
A|--------------------------------------------------|
E|-4----4----2----2----4---4----0----0--------------|

e|--------------------------------------------------|
B|----0----0----0----0----0------4------------------|
G|---4----4----3----3----4---4----6---6-------------|
D|--6----6----4----4----4---4---6----6--------------|
A|---------------------2---2--------4---------------|
E|-4----4----2----2------------4--------------------|

e|--------------------------------------------------|
B|----0----0----0----0----0---0----0---0------------|
G|---4----4----4----4----4---4----4-----3-----------|
D|--6----6----4----4----3---3----2----2-------------|
A|--------------------------------------------------|
E|-4----4----2----2----4---4----0----0--------------|

e|--------------------------------------------------------|
B|----0----0----0----0----0---0---------------------------|
G|---4----4----6----6----6---6-6---6-6-6-6--6-6-6---------|
D|--6----6----4----4----4----------6-6-6-6--6-6-6---------|
A|---------------------------------4-4-4-4--4-4-4---------|
E|-4----4----6----6----7----7-----------------------------|
                              P.M.|......|

Pre-Chorus:

e|--------------------------------------------------------|
B|-----------------------------------9-----------9--------|
G|-4--4/8--8/9--9/11--11\------------8-----------8--------|
D|---------------------------6-6-6-6-6---6-6-6-6-6--------|
A|-2--2/6--6/7--7/9---9\----------------------------------|
E|--------------------------------------------------------|
                        P.M.|.......|   |.......| 

e|--------------------------------------------------|
B|-------------------------------------------15vv---|
G|-4--4/8--8/9--9/11--11/13\11-----/13-11-13--------|
D|--------------------------------------------------|
A|-2--2/6--6/7--7/9----9/11\9-----------------------|
E|--------------------------------------------------|

Chorus:

e|---------------------------------------------|       |-----------------|
B|---------------------------------------------|       |-----------------|
G|--/4-3-4--4-3----/4-3-4--4-3----/6-4-6--6-4--| x2    |--/8-6-4--4/6----|
D|---------------------------------------------|       |-----------------|
A|---------------------------------------------|       |-----------------|
E|---------------------------------------------|       |-----------------|
                                                            1st Ending
e|-----------------------|
B|---------7~----7-9~----|
G|-8~--6-8-----8---------|
D|-----------------------|
A|-----------------------|
E|-----------------------|
        2nd Ending

e|----------------------(24)---------------18b19r18b19r18b19r18-16------|
B|-(12)---(19)~~~~~~~--------(24)~~~~~~~--------------------------------|
G|--------------wh-wh--------------wh-wh--------------------------------|
D|----------------------------------------------------------------------|
A|----------------------------------------------------------------------|
E|----------------------------------------------------------------------|

Verse:

e|--------------------------------------------------|
B|----0----0----0----0----0---0----0---0------------|
G|---4----4----4----4----4---4----4-----3-----------|
D|--6----6----4----4----3---3----2----2-------------|
A|--------------------------------------------------|
E|-4----4----2----2----4---4----0----0--------------|

e|--------------------------------------------------|
B|----0----0----0----0----0----0---4----------------|
G|---4----4----4----3----4----4-----6---6-----------|
D|--6----6----4----4----4----4----6----6------------|
A|---------------------2----2----4----4-------------|
E|-4----4----2----2---------------------------------|

e|--------------------------------------------------|
B|----0----0----0----0----0---0----0---0------------|
G|---4----4----4----4----4---4----4-----3-----------|
D|--6----6----4----4----3---3----2----2-------------|
A|--------------------------------------------------|
E|-4----4----2----2----4---4----0----0--------------|

e|--------------------------------------------------------|
B|----0----0----0----0----0---0---------------------------|
G|---4----4----6----6----6---6-6---6-6-6-6--6-6-6---------|
D|--6----6----4----4----4----------6-6-6-6--6-6-6---------|
A|---------------------------------4-4-4-4--4-4-4---------|
E|-4----4----6----6----7----7-----------------------------|
                              P.M.|......|

Pre-Chorus:

e|--------------------------------------------------------|
B|-----------------------------------9-----------9--------|
G|-4--4/8--8/9--9/11--11\------------8-----------8--------|
D|---------------------------6-6-6-6-6---6-6-6-6-6--------|
A|-2--2/6--6/7--7/9---9\----------------------------------|
E|--------------------------------------------------------|
                        P.M.|.......|   |.......| 

e|--------------------------------------------------|
B|--------------------------------------------------|
G|-4--4/8--8/9--9/11--11/13\11-----/13-11-13--------|
D|--------------------------------------------------|
A|-2--2/6--6/7--7/9----9/11\9-----------------------|
E|--------------------------------------------------|

Chorus:

e|---------------------------------------------|       |-----------------|
B|---------------------------------------------|       |-----------------|
G|--/4-3-4--4-3----/4-3-4--4-3----/6-4-6--6-4--| x2    |--/8-6-4--4/6----|
D|---------------------------------------------|       |-----------------|
A|---------------------------------------------|       |-----------------|
E|---------------------------------------------|       |-----------------|
                                                            1st Ending
e|-----------------------|
B|---------7~----7-9~----|
G|-8~--6-8-----8---------|
D|-----------------------|   Do the whole thing x2
A|-----------------------|
E|-----------------------|

Havent got the solo yet but i'll get it soon
Tap to rate this tab
 
# A B C D E F G H I J K L M N O P Q R S T U V W X Y Z