Song name
# A B C D E F G H I J K L M N O P Q R S T U V W X Y Z

Queensryche - Warning tab

-------------------------------------------------------------------------------
                             Warning - Queensryche
-------------------------------------------------------------------------------
Tabbed by: Sean Tysoe
E-mail:3ddie12@gmail.com

Tuning: standard

First riff of the song before the vocals start
Guitar 1
e|--------0------------------0--------------|
B|--------0------------------0--------------|
G|--------0------------------0--------------|
D|--------2----7-9s11-------2----5---------|
A|--------2----5-7s9--------2----3-7s5----|
E|--0-00--0------------0-00--0-------5s3----|

Guitar 2
e|------------------------------------------------|
B|------------------------------------------------|
G|-------9-9-9-----------------9-9-9--------------|
D|-------9-9-9----7-9s11------9-9-9----5---------|
A|-------7-7-7----5-7s9-------7-7-7----3-7s5----|
E|--0-00------------------0-00-------------5s3----|

Verse riff
e|--------------------------------------------------------------------------------|
B|--------------------------------------------------------------------------------|
G|-------9-------9-9-9-------9---------------9-------9-9-9------9--4--------------|
D|-------9-------9-9-9-------9--7--11--------9-------9-9-9------9----7-5--5--7----|
A|-------7-------7-7-7-------7--5--9---------7-------7-7-7------7---------3--5----|
E|--0-00----0-00--------0-00------------0-00----0-00-------0-00-------------------|

e|-------------------------------------------------------------------------|
B|-------------------------------------------------------------------------|
G|-------9-------9-9-9-------9---------------9-------9-9-9------9----------|
D|-------9-------9-9-9-------9--7--11--------9-------9-9-9------9--5-------|
A|-------7-------7-7-7-------7--5--9---------7-------7-7-7------7--3--5----|
E|--0-00----0-00--------0-00------------0-00----0-00-------0-00-------3----|

e|-------0-----------------------------------0------------------------------------|
B|-------0-----------------------------------0------------------------------------|
G|-------0----------------------------------0---------------------4--------------|
D|-------2----------------------7--11-------2-----------------------7-5--5--7----|
A|-------2----------------------5--9--------2----------------------------3--5----|
E|--0-00-0------------------------------0-00-0------------------------------------|

e|-------0-----------------------------------0-----------------------------|
B|-------0-----------------------------------0-----------------------------|
G|-------0-----------------------------------0-----------------------------|
D|-------2-----------------------7--11-------2---------------------5--7----|
A|-------2-----------------------5--9--------2---------------------3--5----|
E|--0-00-0------------------------------0-00-0-----------------------------|

Pre chorus
e|----------------------------------------------------------------------------|
B|------------------3--3------------------------------------------------------|
G|------------------5----5------------------------7-9-12-11-------------------|
D|--4----2--4----2--5------5---------------7-9-10--------------5-4-------7----|
A|--2----0--2----0--3---------------7-9-10--------------------------6----5----|
E|---------------------------7-8-10-----------------------------------7-------|

chorus
e|----------------------------------------------------------------------|
B|----------------------------------------------------------------------|
G|--9----9--12----9----9-------------------9----9--14----5--------------|
D|--9----9--12----9----9-------75-4-------9----9--14----5-5-----------|
A|--7----7--10----7----7----5---------5----7----7--12----3--5--5-4------|
E|----00------------00---00------------------00-------------3------5----|

e|----------------------------------------------------------------------|
B|----------------------------------------------------------------------|
G|--9----9--12----9----9-------------------9----9--14----5-----2--------|
D|--9----9--12----9----9-------7-5-4-------9----9--14----5--5--2--------|
A|--7----7--10----7----7----5---------5----7----7--12----3--5--0--------|
E|----00------------00---00------------------00-------------3-----------|


Little fill before the next verse starts
e|-----------------------------------|
B|-----------------------------------|
G|-----------------------------------|
D|-------------------2---------------|
A|--2-3-2--2-3-2-3-2---3-2-0-5--7----|
E|---------------------------3--5----|

Verse 2 is slightly different to verse 1
Guitar 1
e|--------------------------------------------------------------------------------|
B|--------------------------------------------------------------------------------|
G|-------9-------9-9-9-------9---------------9-------9-9-9------9--4--------------|
D|-------9-------9-9-9-------9--7--11--------9-------9-9-9------9----7-5--5--7----|
A|-------7-------7-7-7-------7--5--9---------7-------7-7-7------7---------3--5----|
E|--0-00----0-00--------0-00------------0-00----0-00-------0-00-------------------|

e|-------------------------------------------------------------------------|
B|-------------------------------------------------------------------------|
G|-------9-------9-9-9-------9---------------9-------9-9-9------9----------|
D|-------9-------9-9-9-------9--7--11--------9-------9-9-9------9--5-------|
A|-------7-------7-7-7-------7--5--9---------7-------7-7-7------7--3--5----|
E|--0-00----0-00--------0-00------------0-00----0-00-------0-00-------3----|

e|-------0-----------------------------------0------------------------------------|
B|-------0-----------------------------------0------------------------------------|
G|-------0----------------------------------0---------------------4--------------|
D|-------2----------------------7--11-------2-----------------------7-5--5--7----|
A|-------2----------------------5--9--------2----------------------------3--5----|
E|--0-00-0------------------------------0-00-0------------------------------------|

e|-------0-----------------------------------0-----------------------------|
B|-------0-----------------------------------0-----------------------------|
G|-------0-----------------------------------0-----------------------------|
D|-------2-----------------------7--11-------2---------------------5--2----|
A|-------2-----------------------5--9--------2---------------------3--0----|
E|--0-00-0------------------------------0-00-0-----------------------------|

Guitar 2
e|--------------------------------------------------------------------------------|
B|--------------------------------------------------------------------------------|
G|-------9-------9-9-9-------9---------------9-------9-9-9------9--4--------------|
D|-------9-------9-9-9-------9--7--11--------9-------9-9-9------9----7-5--5--7----|
A|-------7-------7-7-7-------7--5--9---------7-------7-7-7------7---------3--5----|
E|--0-00----0-00--------0-00------------0-00----0-00-------0-00-------------------|

e|-------------------------------------------------------------------------|
B|-------------------------------------------------------------------------|
G|-------9-------9-9-9-------9---------------9-------9-9-9------9----------|
D|-------9-------9-9-9-------9--7--11--------9-------9-9-9------9--5-------|
A|-------7-------7-7-7-------7--5--9---------7-------7-7-7------7--3--5----|
E|--0-00----0-00--------0-00------------0-00----0-00-------0-00-------3----|

e|--------------------------------------------------------------------------------|
B|--------------------------------------------------------------------------------|
G|-------9-------9-9-9-------9---------------9-------9-9-9------9--4--------------|
D|-------9-------9-9-9-------9--7--11--------9-------9-9-9------9----7-5--5--7----|
A|-------7-------7-7-7-------7--5--9---------7-------7-7-7------7---------3--5----|
E|--0-00----0-00--------0-00------------0-00----0-00-------0-00-------------------|

e|-------------------------------------------------------------------------|
B|-------------------------------------------------------------------------|
G|-------9-------9-9-9-------9---------------9-------9-9-9------9----------|
D|-------9-------9-9-9-------9--7--11--------9-------9-9-9------9--5--2----|
A|-------7-------7-7-7-------7--5--9---------7-------7-7-7------7--3--0----|
E|--0-00----0-00--------0-00------------0-00----0-00-------0-00------------|

Pre chorus

chorus

Fill again before solos
e|-----------------------------------|
B|-----------------------------------|
G|-----------------------------------|
D|-------------------2---------------|
A|--2-3-2--2-3-2-3-2---3-2-0-5--7----|
E|---------------------------3--5----|


Solo - rhythm guitar
e|--------------------------------------------------------------------------------|
B|--------------------------------------------------------------------------------|
G|--9----9----7----7----2----2---------------9----9----7----7----2----2-----------|
D|--9----9----7----7----2----2----5--4--5----9----9----7----7----2----2----5--4--5|
A|--7----7----5-55-5----0-00-0----3--2--3----7----7----5-55-5----0-00-0----3--2--3|
E|----00---------------------------------------00---------------------------------|

            Drums speed up at this point
e|----------#------------------------#-----------------------------------------|
B|----------#------------------------#-----------------------------------------|
G|--9---9---#-7----7------------2----#--9----9----7----7----5----7-------------|
D|--9---9---#-7----7----5----5--2----#--9----9----7----7----5----7-------------|
A|--7---7---#-5----5----5----5--0----#--7----7----5-55-5----3----5-------------|
E|----00----#-----------3----3-------#----00-----------------------------------|

Chorus/outro
e|----------------------------------------------------------------------|
B|----------------------------------------------------------------------|
G|--9----9--12----9----9-------------------9----9--14----5--------------|
D|--9----9--12----9----9-------75-4-------9----9--14----5-5-----------|
A|--7----7--10----7----7----5---------5----7----7--12----3--5--5-4------|
E|----00------------00---00------------------00-------------3------5----|

e|-------------------------------------------------------------------------|
B|-------------------------------------------------------------------------|
G|--9----9--12----9----9-------------------9----9--14----5-----------------|
D|--9----9--12----9----9-------7-5-4-------9----9--14----5--5--------------|
A|--7----7--10----7----7----5---------5----7----7--12----3--5--5-4---------|
E|----00------------00---00------------------00-------------3------5-------|

e|----------------------------------------------------------------------|
B|----------------------------------------------------------------------|
G|--9----9--12----9----9-------------------9----9--14----5--------------|
D|--9----9--12----9----9-------75-4-------9----9--14----5-5-----------|
A|--7----7--10----7----7----5---------5----7----7--12----3--5--5-4------|
E|----00------------00---00------------------00-------------3------5----|

e|-------------------------------------------------------------------------------|
B|-------------------------------------------------------------------------------|
G|--9----9--12----9----9-------------------9----9--14----4----5-5-5-5-5----------|
D|--9----9--12----9----9-------7-5-4-------9----9--14----4----5-5-5-55---7------|
A|--7----7--10----7----7----5---------5----7----7--12----2----3-----------5------|
E|----00------------00---00------------------00----------------------------------|



That is all of the rhythm for the song. I have a rough idea of how to play the solo so I
will work on it and add it at a later date.


************************************

| /   slide up
| \   slide down
| h   hammer-on
| p   pull-off
| ~   vibrato
| +   harmonic
| x   Mute note
| b   Bend
| pb  Pre-bend
| br  Bend release
| pbr Pre-bend release
| brb Bend release bend

************************************
Tap to rate this tab
# A B C D E F G H I J K L M N O P Q R S T U V W X Y Z