Song name
# A B C D E F G H I J K L M N O P Q R S T U V W X Y Z

Queensryche - I Dont Believe In Love tab

Chris De Garmo's intro riff:
          Let ring----------------------------| Let ring----------------|   
e|----------------------------------------------------------------------|
b|--------------10-----8-----6-----11----------8/(10)-10-----8-----6----|
g|--------------7------7-----7-----7-----------5/(7)--7------7-----7----|
d|------------0-----0-----0-----0-------------------------0-----0-------|
a|----------------------------------------------------------------------|
e|----------------------------------------------------------------------|

Michael Wilton's intro riff:
e|-------------------------------------------------------------------------|
b|-------------------------------------------------------------------------|
g|---------5-/-7-------------------------------5-/-7-----------------------|
d|---------5-/-7--------------------8----------5-/-7-----------------------|
a|---------3-/-5--5--5--5--5--5--5--5----------3-/-5--5--5--5--5--5----3---|
e|-------------------------------------------------------------------------|

Chris:
e|-------------------|
b|----5-h-6-----5----|
g|----5---------5----|
d|----5---------3----|
a|----3------1--1----|
e|-------------------|

Michael:
e|-------------------|
b|-------------------|
g|----5-\-3-----3----|
d|----5-\-3-----3----|
a|----3-\-1--1--1----|
e|-------------------|

Chris:
       Let ring-------------------------------| Let ring-------------------|
e|-------------------------------------------------------------------------|
b|--------------10-----8-----6-----11--------------8----10-----8-----6-----|
g|--------------7------7-----7-----7---------------5-----7-----7-----7-----|
d|------------0-----0-----0-----0---------------------0-----0-----0--------|
a|-------------------------------------------------------------------------|
e|-------------------------------------------------------------------------|

e|-------------------------------------------------------------------------|
b|-------------------------------------------------------------------------|
g|--------5-/-7------------------------------------5--7--------------------|
d|--------5-/-7------------------------------------5--7--------------------|
a|--------3-/-5--555--555--555--555--555--555--555-3--5--555--555--555--3--|
e|-------------------------------------------------------------------------|

Chris:
e|----------------------------------------------|
b|----5-h-6-----5-----5-----5-------------------|
g|----5---------5-----5-----5-----3-------------|
d|----5---------3-----3-----3-----3-------------|
a|----3------1--1-----1-----1-----1-------------|
e|----------------------------------------------|

Michael:
e|----------------------------------------------|
b|----------------------------------------------|
g|----5-\-3-----3-----3-----3-----3-------------|
d|----5-\-3-----3-----3-----3-----3-------------|
a|----3-\-1--1--1-----1-----1-----1-------------|
e|----------------------------------------------|

Verse:
Chris:
Michael tacets:
e|------0------|------1------|------3------|------0------|
b|------3------|------3------|------6------|------5------|
g|------2------|------3------|------5------|------3------|
d|------0------|------0------|------0------|------0------|
a|-------------|-------------|-------------|-------------|
e|-------------|-------------|-------------|-------------|
  "I a-woke...."    "under..."    "camera..."   "searching high and low..."

e|-----------5----|-----------3----|-----------3----|-----------1----|
b|--------3-------|--------1-------|--------3-------|--------1-------|
g|-----2----------|-----2----------|-----5----------|-----3----------|
d|--0-------------|--0-------------|--0-------------|--0-------------|
a|----------------|----------------|----------------|----------------|
e|----------------|----------------|----------------|----------------|

e|--0---0------|------1------|------3------|------0------|
b|------3------|------3------|------6------|------5------|
g|------2------|------3------|------5------|------3------|
d|------0------|------0------|------0------|------0------|
a|-------------|-------------|-------------|-------------|
e|-------------|-------------|-------------|-------------|
           "The...."   "found.crime"   "and blind..."

e|-----------5----|-----------3----|-----------3----|-----------1----|
b|--------3-------|--------1-------|--------3-------|--------1-------|
g|-----2----------|-----2----------|-----5----------|-----3----------|
d|--0-------------|--0-------------|--0-------------|--0-------------|
a|----------------|----------------|----------------|----------------|
e|----------------|----------------|----------------|----------------|

e|-0--0-------0----|--1-------1----|--3-------3----|--0-------0----|
b|----3---3-----3--|--3---3-----3--|--6---6-----6--|--5---5-----5--|
g|----2-2---2-----2|--3-3---3-----3|--5-5---5-----5|--3-3---3-----3|
d|----0------------|--0------------|--0------------|--0------------|
a|-----------------|---------------|---------------|---------------|
e|-----------------|---------------|---------------|---------------|
       "she said.."    "I guess..."  "but do we..."   "ever really know?"

e|--0-------0----|--1-------1----|--3-------3----|--0-------0----|
b|--3---3-----3--|--3---3-----3--|--6---6-----6--|--5---5-----5--|
g|--2-2---2-----2|--3-3---3-----3|--5-5---5-----5|--3-3---3------|
d|--0------------|--0------------|--0------------|--0------------|
a|---------------|---------------|---------------|---------------|
e|---------------|---------------|---------------|---------------|
    "she said..."    "on the..."     "but I..."    "never find her."

Michael:
e|-------------------------------|---------------|---------------|
b|-------------------------------|---------------|---------------|
g|-------------------------------|---------------|-----*-*---5-7-|
d|-------------------------------|7-7-7-7-7-7-7--|-7-7-5-5-*-5-7-|
a|-------------------------------|5-5-5-5-5-5-5--|-5-5-----3-3-7-|
e|-------------------------------|---------------|---------------|
                                p.m.-----------|

Chorus:
Chris:
  Let ring--------------------------------|
e|----------------------------------------------------------8-|
b|--10-------8-------6-------11-----------------------------8-|
g|---7-------7-------7--------7-----------------------------5-|
d|-------0-------0-------0--------------------0--0-0-0--0-0---|
a|------------------------------------------------------------|
e|------------------------------------------------------------|
   "I    dont        be    lieve     in      love"

Michael:
e|-------------------------------------------------------------|
b|-------------------------------------------------------------|
g|----5/7----------------------------------------------------5-|
d|----5/7----------------------------------------------------5-|
a|----3/5---5-5-5--5-5-5--5-5-5--5-5-5--5-5-5--5-5-5--5-5-5--3-|
e|-------------------------------------------------------------|

Chris:
e|--(8)---------------------------------------------------|
b|--(8)----------------------------------5-h-6-----5------|
g|--(5)----------------------------------5---------5------|
d|---------0-0-0--0-0-0--0-0-0--0-0------5---------3---5--|
a|-----------------------------------3----------1--1---3--|
e|--------------------------------------------------------|

Michael:
e|--------------------------------------------------------|
b|--------------------------------------------------------|
g|-(5)-7---------------------------------5-\-3-----3------|
d|-(5)-7---------------------------------5-\-3-----3------|
a|-(3)-5---5-5-5--5-5-5--5-5-5--5-5--3---3-\-1--1--1------|
e|--------------------------------------------------------|

Chris:
  Let ring--------------------------------|
e|----------------------------------------------------------8-|
b|--10-------8-------6-------11-----------------------------8-|
g|---7-------7-------7--------7-----------------------------5-|
d|-------0-------0-------0--------------------0--0-0-0--0-0---|
a|------------------------------------------------------------|
e|------------------------------------------------------------|
   "I    dont        be    lieve     in      love"

Michael:
e|-------------------------------------------------------------|
b|-------------------------------------------------------------|
g|----5/7----------------------------------------------------5-|
d|----5/7----------------------------------------------------5-|
a|----3/5---5-5-5--5-5-5--5-5-5--5-5-5--5-5-5--5-5-5--5-5-5--3-|
e|-------------------------------------------------------------|

Chris:
e|--(8)----------------------------------------------------------------|
b|--(8)----------------------------------5-h-6-----5-------------------|
g|--(5)----------------------------------5---------5------3--------5x--|
d|---------0-0-0--0-0-0--0-0-0--0-0------5---------3------3--------5x--|
a|-----------------------------------3----------1--1------1--------3x--|
e|---------------------------------------------------------------------|

Michael:
e|---------------------------------------------------------------------|
b|---------------------------------------------------------------------|
g|-(5)-7---------------------------------5-\-3-----3------3--------5x--|
d|-(5)-7---------------------------------5-\-3-----3------3--------5x--|
a|-(3)-5---5-5-5--5-5-5--5-5-5--5-5--3---3-\-1--1--1------1--------3x--|
e|---------------------------------------------------------------------|

Verse:
Chris:
Michael tacets:
e|------0------|------1------|------3------|------0------|
b|------3------|------3------|------6------|------5------|
g|------2------|------3------|------5------|------3------|
d|------0------|------0------|------0------|------0------|
a|-------------|-------------|-------------|-------------|
e|-------------|-------------|-------------|-------------|
      "No more.."   "seen them.." "day I was.." "haunted my every*

e|------0------|------1------|------3------|------0------|
b|------3------|------3------|------6------|------5------|
g|------2------|------3------|------5------|------3------|
d|------0------|------0------|------0------|------0------|
a|-------------|-------------|-------------|-------------|
e|-------------|-------------|-------------|-------------|
*move.."  "open hand's.."   "and shove.." "for love... doesn't matter."

Chris:
e|------------0-------0----|--1-------1----|--3-------3----|--0-------0----|
b|------------3---3-----3--|--3---3-----3--|--6---6-----6--|--5---5-----5--|
g|------------2-2---2-----2|--3-3---3-----3|--5-5---5-----5|--3-3---3-----3|
d|------------0------------|--0------------|--0------------|--0------------|
a|-------------------------|---------------|---------------|---------------|
e|-------------------------|---------------|---------------|---------------|
              "she made.."    "I guess..."    "of making.."  "night seem bright as day."
Michael:
e|-------------------------|---------------|--3------------|--0------------|
b|-----------3-------------|--3------------|--6------------|--5------------|
g|---3---5---2-------------|--3------------|--5------------|--3------------|
d|---3---5---0-------------|--0------------|--0------------|--0------------|
a|---1---3-----------------|---------------|---------------|---------------|
e|-------------------------|---------------|---------------|---------------|
Chris:
e|------------0-------0----|--1-------1----|--3-------3----|--0-------0----|
b|------------3---3-----3--|--3---3-----3--|--6---6-----6--|--5---5-----5--|
g|------------2-2---2-----2|--3-3---3-----3|--5-5---5-----5|--3-3---3------|
d|------------0------------|--0------------|--0------------|--0------------|
a|-------------------------|---------------|---------------|---------------|
e|-------------------------|---------------|---------------|---------------|
               "Now I walk.." "never see..."  "she must.."    "never said goodbye."
Michael:
e|-------------------------|---------------|---------------|---------------|
b|-----------3-------------|--3------------|---------------|---------------|
g|---3---5---2-------------|--3------------|---------------|-----*-*---5-7-|
d|---3---5---0-------------|--0------------|7-7-7-7-7-7-7--|-7-7-5-5-*-5-7-|
a|---1---3-----------------|---------------|5-5-5-5-5-5-5--|-5-5-----3-3-7-|
e|-------------------------|---------------|---------------|---------------|
                                          p.m.-----------|

Chorus:
Chris:
  Let ring---------------------------------|
e|-------------------------------------------------------------8-|
b|--10-------8-------6-------11--------------------------------8-|
g|---7-------7-------7--------7--------------------------------5-|
d|-------0-------0-------0-----------------------0--0-0-0--0-0---|
a|---------------------------------------------------------------|
e|---------------------------------------------------------------|
   "I    dont        be    lieve            in      love"

Michael:
e|---------------------------------------------------------------|
b|---------------------------------------------------------------|
g|-(7)---------------------------------------------------------5-|
d|-(7)---------------------------------------------------------5-|
a|-(5)-5-5-5--5-5-5--5-5-5--5-5-5--5-5-5--5-5-5--5-5-5--5-5-5--3-|
e|---------------------------------------------------------------|

Chris:
e|--(8)---------------------------------------------------|
b|--(8)----------------------------------5-h-6-----5------|
g|--(5)----------------------------------5---------5------|
d|---------0-0-0--0-0-0--0-0-0--0-0------5---------3---5--|
a|-----------------------------------3----------1--1---3--|
e|--------------------------------------------------------|

Michael:
e|--------------------------------------------------------|
b|--------------------------------------------------------|
g|-(5)-7---------------------------------5-\-3-----3------|
d|-(5)-7---------------------------------5-\-3-----3------|
a|-(3)-5---5-5-5--5-5-5--5-5-5--5-5--3---3-\-1--1--1------|
e|--------------------------------------------------------|

Chris:
  Let ring---------------------------------|
e|----------------------------------------------------------8-|
b|--10-------8-------6-------11-----------------------------8-|
g|---7-------7-------7--------7-----------------------------5-|
d|-------0-------0-------0--------------------0--0-0-0--0-0---|
a|------------------------------------------------------------|
e|------------------------------------------------------------|
   "I    dont        be    lieve     in      love"

Michael:
e|-------------------------------------------------------------|
b|-------------------------------------------------------------|
g|----5/7----------------------------------------------------5-|
d|----5/7----------------------------------------------------5-|
a|----3/5---5-5-5--5-5-5--5-5-5--5-5-5--5-5-5--5-5-5--5-5-5--3-|
e|-------------------------------------------------------------|

Chris:
e|--(8)---------------------------------------------------|
b|--(8)----------------------------------5-h-6-----5------|
g|--(5)----------------------------------5---------5------|
d|---------0-0-0--0-0-0--0-0-0--0-0------5---------3---5--|
a|-----------------------------------3----------1--1---3--|
e|--------------------------------------------------------|

Michael:
e|--------------------------------------------------------|
b|--------------------------------------------------------|
g|-(5)-7---------------------------------5-\-3-----3------|
d|-(5)-7---------------------------------5-\-3-----3------|
a|-(3)-5---5-5-5--5-5-5--5-5-5--5-5--3---3-\-1--1--1------|
e|--------------------------------------------------------|


Chris:
  Let ring--------------------------------|
e|----------------------------------------------------------8-|
b|--10-------8-------6-------11-----------------------------8-|
g|---7-------7-------7--------7-----------------------------5-|
d|-------0-------0-------0--------------------0--0-0-0--0-0---|
a|------------------------------------------------------------|
e|------------------------------------------------------------|
   "I    dont        be    lieve     in      love"

Michael:
e|-------------------------------------------------------------|
b|-------------------------------------------------------------|
g|----5/7----------------------------------------------------5-|
d|----5/7----------------------------------------------------5-|
a|----3/5---5-5-5--5-5-5--5-5-5--5-5-5--5-5-5--5-5-5--5-5-5--3-|
e|-------------------------------------------------------------|

Chris:       Let ring-------------|
e|--(8)---8----------------------------------------------------|
b|--(8)---8-------10----8-----6-----------5-h-6-----5----------|
g|--(5)---5-------7-----7-----7-----------5---------5----------|
d|-------------0-----0-----0--------------5---------3------5---|
a|------------------------------------3----------1--1------3---|
e|-------------------------------------------------------------|

Michael:
e|-------------------------------------------------------------|
b|-------------------------------------------------------------|
g|--(5)---7-------------------------------5-\-3-----3------3---|
d|--(5)---7-------------------------------5-\-3-----3------3---|
a|--(3)---5---5-5-5--5-5-5--5-5-5--5--3---3-\-1--1--1------1---|
e|-------------------------------------------------------------|

Chris:
  Let ring--------------------------------|
e|----------------------------------------------------------8-|
b|--10-------8-------6-------11-----------------------------8-|
g|---7-------7-------7--------7-----------------------------5-|
d|-------0-------0-------0--------------------0--0-0-0--0-0---|
a|------------------------------------------------------------|
e|------------------------------------------------------------|
   "I    dont        be    lieve     in      love"

Michael:
e|-------------------------------------------------------------|
b|-------------------------------------------------------------|
g|----5/7----------------------------------------------------5-|
d|----5/7----------------------------------------------------5-|
a|----3/5---5-5-5--5-5-5--5-5-5--5-5-5--5-5-5--5-5-5--5-5-5--3-|
e|-------------------------------------------------------------|

Chris:    Let ring----------------|
e|--(8)-------------------------------------------------------|
b|--(8)----------10----8-----6-----------5-h-6-----5----------|
g|--(5)----------7-----7-----7-----------5---------5----------|
d|------------0-----0-----0--------------5---------3----------|
a|-----------------------------------3----------1--1----------|
e|------------------------------------------------------------|

Michael:
e|------------------------------------------------------------|
b|------------------------------------------------------------|
g|--(5)--7-------------------------------5-\-3-----3----------|
d|--(5)--7-------------------------------5-\-3-----3----------|
a|--(3)--5---5-5-5--5-5-5--5-5-5--5--3---3-\-1--1--1----------|
e|------------------------------------------------------------|

Solo:
Michael:
  (full)(full)                                            (full)
e|-------------------------------------------------------------------------|
b|--18b--18b~~~~~~~~----------16h18p1615h16p15----15-----------------------|
g|---------------------------------------------17----17-15-17b-------17~~~~|
d|-------------------------------------------------------------------------|
a|-------------------------------------------------------------------------|
e|-------------------------------------------------------------------------|

Chris:
e|-------------------------------------------------------------------------|
b|-----------------------------------------------------------------------8-|
g|-------------------------------------7-------------8-------------3-----7-|
d|-------------------------------------5-------x-----5----------x--5--x--5-|
a|-------5-----------------------------------------------------------------|
e|--3-------3--3--3--3--3--3--3--------------------------------------------|
          p.m.------------------|

Michael:
e|--------------------------------------------------------------------|
b|--------------------------------------------------------------------|
g|----------------------------------14-h15h17--------14h15h17---------|
d|----------14h15h17--------14h15h17---------14h15h17--------14h15h17-|
a|--14h15h17--------14h15h17------------------------------------------|
e|--------------------------------------------------------------------|

Chris:
e|--------------------------------------------------------------------|
b|--8-----------------------------------------------------------------|
g|--7---------------------------------------------------------8-------|
d|--5---------------------------------------------------------5-------|
a|--------------------------------------------------------------------|
e|--------------------------------------------------------------------|

Michael:
e|---------------------------15-----------------------|
b|-------------------15--18------18~~~~~~~~-----------|
g|-------14-h15-h17-----------------------------------|
d|----------------------------------------------------|
a|----------------------------------------------------|
e|----------------------------------------------------|

Chris:
e|----------------------------------------------------|
b|--------------------6-----------6---6---------------|
g|--------------------3-----------3---5---------------|
d|-------x------------5-------x---5---3---------------|
a|----------------------------------------------------|
e|----------------------------------------------------|

Michael:
e|------------------------------------------------------------------------|
b|--8---------------------------------------------------8-----------------|
g|--7--------------------------------7------8-----3-----7-----------------|
d|--5--------------------------------5---x--5--x--5--x--5-----------------|
a|------------------------------------------------------------------------|
e|------------------------------------------------------------------------|

Chris:
 p.h.----------------------------|
w/bar----------------------------|    (1/2)          p.m.----|
e|--7\----(7)-------------------------------------------------------------|
b|----\---/---5\----(5)---------------------------------------------------|
g|-----\-/------\---/---3\----(3)----2gb------------------------3---2-----|
d|-----1/2-------\-/------\---/-------------5~~~~~~~~---3---5-------------|
a|---------------1/2-------\-/--------------------------------------------|
e|-------------------------1/2--------------------------------------------|

Michael:
e|--------------------------------------------3--(3)/22--------------------|
b|-----------------------------------3--4--6--------------20~~~~----20~~~~-|
g|--------------------------------5----------------------------------------|
d|-------------------------------------------------------------------------|
a|-------------------------------------------------------------------------|
e|-------------------------------------------------------------------------|

Chris:
 p.m.---------------|
e|---------------------------------------------------18--------------------|
b|-----------------------------------------3--4--(4)/-----16~~~~----16~~~~-|
g|--------------------------------2--3--5----------------------------------|
d|-----------------------1--3--5-------------------------------------------|
a|--------------1--3--5----------------------------------------------------|
e|--0--1--3--5-------------------------------------------------------------|

Michael:                                                            (full)
e|-------------------------------------------------------------------------|
b|--18h20p18-----18----------------/15--13--11~~~~--11~~~~---10--11--11b---|
g|------------20----20~~~~--20~~~~\----------------------------------------|
d|-------------------------------------------------------------------------|
a|-------------------------------------------------------------------------|
e|-------------------------------------------------------------------------|

Chris:                                                              (full)
e|-------------------------------------------------------------------------|
b|--15h17p15-----15----------------/11--10---------------------------------|
g|------------17----17~~~~--17~~~~\---------12~~~~--12~~~~---10--12--12b---|
d|-------------------------------------------------------------------------|
a|-------------------------------------------------------------------------|
e|-------------------------------------------------------------------------|

Michael:
e|-------------------------------------------------------------------------|
b|--11--10--11~~~~~~~\-/10-11-11/13--11~~~--10----8~~~--6-----6h8p6\5-5~~~~|
g|-------------------------------------------------------------------------|
d|-------------------------------------------------------------------------|
a|-------------------------------------------------------------------------|
e|-------------------------------------------------------------------------|

Chris:
e|-------------------------------------------------------------------------|
b|-------------------------------------------------------------------------|
g|--12--10--12~~~~~~~\-/7---8--8/10---8~~~--7-----5~~~--3-----3h5p3\2-2~~~~|
d|-------------------------------------------------------------------------|
a|-------------------------------------------------------------------------|
e|-------------------------------------------------------------------------|

Verse:
Michael and Chris:
e|-------------------------|---------------|--3------------|--0------------|
b|-----------3-------------|--3------------|--6------------|--5------------|
g|-----------2-------------|--3------------|--5------------|--3------------|
d|-----------0-------------|--0------------|--0------------|--0------------|
a|-------------------------|---------------|---------------|---------------|
e|-------------------------|---------------|---------------|---------------|
               "No chance.."    "there's no.."  "my only.." "one day..."
Michael and Chris:
e|-------------------------|---------------|--3------------|--0------------|
b|-----------3-------------|--3------------|--6------------|--5------------|
g|---3---5---2-------------|--3------------|--5------------|--3------------|
d|---3---5---0-------------|--0------------|--0------------|--0------------|
a|---1---3-----------------|---------------|---------------|---------------|
e|-------------------------|---------------|---------------|---------------|
   "for-get    the pain..."    "what can..."   "with or..." "all the same to me."
Chorus:
Chris:
  Let ring---------------------------------|
e|-------------------------------------------------------------8-|
b|--10-------8-------6-------11--------------------------------8-|
g|---7-------7-------7--------7--------------------------------5-|
d|-------0-------0-------0-----------------------0--0-0-0--0-0---|
a|---------------------------------------------------------------|
e|---------------------------------------------------------------|
   "I    dont        be    lieve            in      love"

Michael:
e|---------------------------------------------------------------|
b|---------------------------------------------------------------|
g|-(7)---------------------------------------------------------5-|
d|-(7)---------------------------------------------------------5-|
a|-(5)-5-5-5--5-5-5--5-5-5--5-5-5--5-5-5--5-5-5--5-5-5--5-5-5--3-|
e|---------------------------------------------------------------|

Chris:
e|--(8)---------------------------------------------------|
b|--(8)----------------------------------5-h-6-----5------|
g|--(5)----------------------------------5---------5------|
d|---------0-0-0--0-0-0--0-0-0--0-0------5---------3---5--|
a|-----------------------------------3----------1--1---3--|
e|--------------------------------------------------------|

Michael:
e|--------------------------------------------------------|
b|--------------------------------------------------------|
g|-(5)-7---------------------------------5-\-3-----3------|
d|-(5)-7---------------------------------5-\-3-----3------|
a|-(3)-5---5-5-5--5-5-5--5-5-5--5-5--3---3-\-1--1--1------|
e|--------------------------------------------------------|

Chris:
  Let ring---------------------------------|
e|----------------------------------------------------------8-|
b|--10-------8-------6-------11-----------------------------8-|
g|---7-------7-------7--------7-----------------------------5-|
d|-------0-------0-------0--------------------0--0-0-0--0-0---|
a|------------------------------------------------------------|
e|------------------------------------------------------------|
   "I    dont        be    lieve     in      love"

Michael:
e|-------------------------------------------------------------|
b|-------------------------------------------------------------|
g|----5/7----------------------------------------------------5-|
d|----5/7----------------------------------------------------5-|
a|----3/5---5-5-5--5-5-5--5-5-5--5-5-5--5-5-5--5-5-5--5-5-5--3-|
e|-------------------------------------------------------------|

Chris:
e|--(8)---------------------------------------------------|
b|--(8)----------------------------------5-h-6-----5------|
g|--(5)----------------------------------5---------5------|
d|---------0-0-0--0-0-0--0-0-0--0-0------5---------3---5--|
a|-----------------------------------3----------1--1---3--|
e|--------------------------------------------------------|

Michael:
e|--------------------------------------------------------|
b|--------------------------------------------------------|
g|-(5)-7---------------------------------5-\-3-----3------|
d|-(5)-7---------------------------------5-\-3-----3------|
a|-(3)-5---5-5-5--5-5-5--5-5-5--5-5--3---3-\-1--1--1------|
e|--------------------------------------------------------|


Chris:
  Let ring--------------------------------|
e|----------------------------------------------------------8-|
b|--10-------8-------6-------11-----------------------------8-|
g|---7-------7-------7--------7-----------------------------5-|
d|-------0-------0-------0--------------------0--0-0-0--0-0---|
a|------------------------------------------------------------|
e|------------------------------------------------------------|
   "I    dont        be    lieve     in      love"

Michael:
e|-------------------------------------------------------------|
b|-------------------------------------------------------------|
g|----5/7----------------------------------------------------5-|
d|----5/7----------------------------------------------------5-|
a|----3/5---5-5-5--5-5-5--5-5-5--5-5-5--5-5-5--5-5-5--5-5-5--3-|
e|-------------------------------------------------------------|

Chris:       Let ring-------------|
e|--(8)---8----------------------------------------------------|
b|--(8)---8-------10----8-----6-----------5-h-6-----5----------|
g|--(5)---5-------7-----7-----7-----------5---------5----------|
d|-------------0-----0-----0--------------5---------3------5---|
a|------------------------------------3----------1--1------3---|
e|-------------------------------------------------------------|

Michael:
e|-------------------------------------------------------------|
b|-------------------------------------------------------------|
g|--(5)---7-------------------------------5-\-3-----3------3---|
d|--(5)---7-------------------------------5-\-3-----3------3---|
a|--(3)---5---5-5-5--5-5-5--5-5-5--5--3---3-\-1--1--1------1---|
e|-------------------------------------------------------------|

Chris:
  Let ring--------------------------------|
e|----------------------------------------------------------8-|
b|--10-------8-------6-------11-----------------------------8-|
g|---7-------7-------7--------7-----------------------------5-|
d|-------0-------0-------0--------------------0--0-0-0--0-0---|
a|------------------------------------------------------------|
e|------------------------------------------------------------|
   "I    dont        be    lieve     in      love"

Michael:
e|-------------------------------------------------------------|
b|-------------------------------------------------------------|
g|----5/7----------------------------------------------------5-|
d|----5/7----------------------------------------------------5-|
a|----3/5---5-5-5--5-5-5--5-5-5--5-5-5--5-5-5--5-5-5--5-5-5--3-|
e|-------------------------------------------------------------|

Chris:    Let ring----------------|
e|--(8)--------------------------------------------|
b|--(8)----------10----8-----6-----------5-h-6-----|
g|--(5)----------7-----7-----7-----------5---------|
d|------------0-----0-----0--------------5---------|
a|-----------------------------------3----------1--|
e|-------------------------------------------------|

Michael:
e|-------------------------------------------------|
b|-------------------------------------------------|
g|--(5)--7-------------------------------5-\-3-----|
d|--(5)--7-------------------------------5-\-3-----|
a|--(3)--5---5-5-5--5-5-5--5-5-5--5--3---3-\-1--1--|
e|-------------------------------------------------|

Chris:
e|-------------------------------------|
b|--5----------------------------------|
g|--5----------------------------3-----|  Repeat three
d|--3----------------------------3-----|  More times.
a|--1----------------------------1-----|
e|-------------------------------------|

Michael:
e|-------------------------------------|
b|-------------------------------------|
g|--3----------------------------3-----|  Repeat three
d|--3----------------------------3-----|  More times.
a|--1----------------------------1-----|
e|-------------------------------------|

Outro:
Chris or Michael: (EMI's video shows Chris playing it. LIVECrime shows Michael is.).
e|-------------0------------|
b|-------3--------3-----3---|
g|----2-----2--------2------|  Repeat 5 
d|-0------------------------|  more times.
a|--------------------------|
e|--------------------------|
                            (Segue to "Waiting for 22".)
Lyrics:
Verse:
I awoke on impact,
Under surveillance from
The camera eye,
Searching high and low.

The criminal mind
Found at the scene of the crime.
Hand-cuffed and blind,
I didn't do it. (with delay effect or repeater).

She said she loved me,
I guess I never knew.
But do we ever,
Ever really know?

She said she'd meet me
On the other side.
But I knew right then,
I'd never find her.

Chorus:
I don't believe in love,
I never have,
I never will.

I don't believe in love,
It's never worth
The pain that you feel.

Verse:
No more nightmares,
I've seen them all.
From the day I was born,
They've haunted my ev'ry move.

Ev'ry open hand's
There to push and shove.
No time for love,
Doesn't matter.

She made a diff'rence,
I guess she had a way
Of making ev'ry night 
Seem bright as day.

Now walk in shadows,
Never see the light.
She must have lied 
'Cause she never said goodbye.

Chorus:
I don't believe in love,
I never have,
I never will.

I don't believe in love,
I'll just pretend,
She never was real.

I don't believe in love,
I need to forget her face,
I see it still.

I don't believe in love,
It's never worth
The pain that you feel.

~~Solo~~

Verse:
No chance for contact,
There's no raison d'etre,
My only hope is one day 
I'll forget

The pain of knowing
What can never be
With or without love
It's all the same to me.

Chorus:
I don't believe in love,
I never have,
I never will.

I don't believe in love,
I'll just pretend,
She never was real.

I don't believe in love,
I never have,
I never will.

I don't believe in love,
It's never worth,
The pain that you feel.

Feel.

The pain that you feel.

Oh, oh, oh.

Feel.

Key:
b- Bend
gb- Gradual Bend
p- Pull Off
h- Hammer On
/- Slide Up
\- Slide Down
Bars going diagonally up and down means  |------3\--/(3)-----------|
to use the tremolo bar                   |--------\/------5\--/(5)-|
                                         |------(1/2)-------\/-----|
                                         |----------------(1/4)----|
p.h.- Pinch Harmonic (with the edge of your thumb or index finger.).
p.m.- Palm Mute
*- Naturally Harm. (also known as "open harmonics").
x- Mute/Muffle string(s)
x immediately after the according note or chord, mute that 
note or chord immediately after plucking all the necessary 
string(s).
w/bar- With bar or use tremolo.
tacet(s)- means to become silent; stop playing; mute sound.
Signatures above notes/bends (full, 1/2, 1/4) means how far to bend the according note(s).
Signatures below dips, dives, etc. (see "bars" explaination example) means
how far to dip, dive, etc. the according note(s).
Tap to rate this tab
# A B C D E F G H I J K L M N O P Q R S T U V W X Y Z