Song name
# A B C D E F G H I J K L M N O P Q R S T U V W X Y Z

Queensryche - Spreading The Disease tab

Queensryche tab: spreading the disease by AgentSteel

Listen to the song while playing

Drum intro
Guitar 1
e----------------------------------------------------------------------0---------------|
B--------------------12----10----8---7---3/-5---5--------------------------------------|
G--------------------------------------------------------------------------------------|
D--------------------------------------------------------------------------------------|
A--------------------------------------------------------------------------------------|
E----0(tremelo)------------------------------------------------------------------------|
			repeat 4 times

Guitar 2
e-----------------------------------------------|---------|
B-----------------------------------------------|---------|
G----------------------------------------2------|---------|
D--------------------2-----4---5----2----2---5--|--2------|
A--------------------2-----4---5----2----0---5--|--2------|
E--------------------0-----2---3----0--------3--|--0------|
		      Em    F*	G    Em   A5  G     Em
Repeat one time

Verse:

Guitar 1 + 2
e--------------------------------------------------------------------------|
B--------------------------------------------------------------------------|
G--------------------------------------------------------------------------|
D--------------------------------------------------------------10---2------|
A--------------------------------------7-----10-----9----------10---2------|
E-0-0-0-0-0-0-0-0-0-0-0-0-0-0-0-0--0-0---0-0----0-0------0--0--8----0------|
 palm mute the low E string

Guitar 1 + 2
e------------------------------------------------------------------------|
B------------------------------------------------------------------------|
G---------------------------14---x-x----12-------------------------------|
D---------------------------14---x-x----12--12----10----2----------------|
A--------------8-----10-----12---x-x----10--12----10----2----------------|
E----------0-0---0-0----0-0-----------------10----8-----0----------------|
                                                        Repeat, But then
Guitar 1 + 2
e-------------------------------------------------------------------------|
B-------------------------------------------------------------------------|
G-----------------14-x---12-----------------------------------------------|
D-----------------14-x---12-12-----10----9--------------------------------|
A-----8---10------12-x---10-12-----10----9--------------------------------|
e-0-0---0----0-0------------10-----8-----7--------------------------------|


Chorus:

Guitar 1
e-----------------------------------------------------------------------------|
B--8----7----5----3---0----3---8----7----5----3---0---------------------------|
G--------------------------------------------------------------------------D--|
A-----------------------------------------------------------------------------|
E-----------------------------------------------------------------------------|

Guitar 2
e--------------------------|
B--------------------------|
G------2--5--------2-------|
D---5--2--5--2--5--2--2----|
A---5--0--3--2--5--0--2----|
E---3--------0--3-----0----|

Solo:

Bridge :
Guitar 1 + 2
e---------------------------------------------------------------------|
B-10-h-12-----12---------10-h-12----12--10--8--7--3-/--5--5-----------|
G---------------------------------------------------------------------|
D---------------------------------------------------------------------|
A---------------------------------------------------------------------|
E---------------------------------------------------------------------|

e---------------------------------------------------------------------------|
B-10-h-12-----12-----12-----15--12--17--15--12--10--8--7------3--3---5--5---|
G---------------------------------------------------------------------------|
D---------------------------------------------------------------------------|
A---------------------------------------------------------------------------|
E---------------------------------------------------------------------------|


e-------------------------------------------------------------------|
B--3--3---5---5-------3/---5--5---3-/-5--5--3-/5-5--3/--5-5---------|
G-------------------------------------------------------------------|
D-------------------------------------------------------------------|
A-------------------------------------------------------------------|
E-------------------------------------------------------------------|
                     now faster and faster

ending:

e---0----0-------0-------0-------0--------0-------0------------|
B---12---10------8-------7-------3--------3-------3------------|
G--------------------------------------------------------------|
D--------------------------------------------------------------|
A--------------------------------------------------------------|
E--------------------------------------------------------------|
Fade out
Tap to rate this tab
# A B C D E F G H I J K L M N O P Q R S T U V W X Y Z