Song name
# A B C D E F G H I J K L M N O P Q R S T U V W X Y Z

Queers - Im Not A Mongo Anymore tab

-------------------------------------------------------------------------------
I'm Not A Mongo Anymore - The Queers
Beyond The Valley Of The Assfuckers
-------------------------------------------------------------------------------
Tabbed by: axeslash
Email: holmzito@yahoo.com

Tuning: The guitar is tuned approxamitely one quarter step below standard tuning

e|-----------------------------------------------------------------|
B|-----------------------------------------------------------------|
G|-----------------5-5-5-5-------------------------5-5-5-5---------|
D|-5-5-5-5-8-8-8-8-5-5-5-5-8-8-8-8-5-5-5-5-8-8-8-8-5-5-5-5-8-8-8-8-|
A|-5-5-5-5-8-8-8-8-3-3-3-3-8-8-8-8-5-5-5-5-8-8-8-8-3-3-3-3-8-8-8-8-|
E|-3-3-3-3-6-6-6-6---------6-6-6-6-3-3-3-3-6-6-6-6---------6-6-6-6-|

e|-----------------------------------------------------------------|
B|-----------------------------------------------------------------|
G|-----------------5-5-5-5-------------------------5-5-5-5---------|
D|-5-5-5-5-8-8-8-8-5-5-5-5-8-8-8-8-5-5-5-5-8-8-8-8-5-5-5-5-8-8-8-8-|
A|-5-5-5-5-8-8-8-8-3-3-3-3-8-8-8-8-5-5-5-5-8-8-8-8-3-3-3-3-8-8-8-8-|
E|-3-3-3-3-6-6-6-6---------6-6-6-6-3-3-3-3-6-6-6-6---------6-6-6-6-| x3

e|-------------------------------------------------------------------------|
B|-------------------------------------------------------------------------|
G|-----------------5-5-5-5-7-7-7-7-----------------5-5-5-5-7-7-7-7-7-7-7-7-|
D|-5-5-5-5-8-8-8-8-5-5-5-5-7-7-7-7-5-5-5-5-8-8-8-8-5-5-5-5-7-7-7-7-7-7-7-7-|
A|-5-5-5-5-8-8-8-8-3-3-3-3-5-5-5-5-5-5-5-5-8-8-8-8-3-3-3-3-5-5-5-5-5-5-5-5-|
E|-3-3-3-3-6-6-6-6-----------------3-3-3-3-6-6-6-6-------------------------|

e|-----------------------------------------|
B|-----------------------------------------|
G|---------------------12------12----12----|
D|-8-8-8-8-10-10-10-10-12--12--12-12-12-12-|
A|-8-8-8-8-10-10-10-10-10--12--10-12-10-12-|
E|-6-6-6-6--8--8--8--8-----10-----10----10-| x2

e|---------------------------------------------|
B|---------------------------------------------|
G|---------------------12----12----12----12----|
D|-8-8-8-8-10-10-10-10-12-12-12-12-12-12-12-12-|
A|-8-8-8-8-10-10-10-10-10-12-10-12-10-12-10-12-|
E|-6-6-6-6--8--8--8--8----10----10----10----10-|

e|-----------------------------------------------------------------|
B|-----------------------------------------------------------------|
G|---------------------12----12----12----12------------------------|
D|-8-8-8-8-10-10-10-10-12-12-12-12-12-12-12-12-8-8-8-8-10-10-10-10-|
A|-8-8-8-8-10-10-10-10-10-12-10-12-10-12-10-12-8-8-8-8-10-10-10-10-|
E|-6-6-6-6--8--8--8--8----10----10----10----10-6-6-6-6--8--8--8--8-|

e|-----------------------------------------------------------------|
B|-----------------------------------------------------------------|
G|-----------------5-5-5-5-------------------------5-5-5-5---------|
D|-5-5-5-5-8-8-8-8-5-5-5-5-8-8-8-8-5-5-5-5-8-8-8-8-5-5-5-5-8-8-8-8-|
A|-5-5-5-5-8-8-8-8-3-3-3-3-8-8-8-8-5-5-5-5-8-8-8-8-3-3-3-3-8-8-8-8-|
E|-3-3-3-3-6-6-6-6---------6-6-6-6-3-3-3-3-6-6-6-6---------6-6-6-6-| x3

e|-------------------------------------------------------------------------|
B|-------------------------------------------------------------------------|
G|-----------------5-5-5-5-7-7-7-7-----------------5-5-5-5-7-7-7-7-7-7-7-7-|
D|-5-5-5-5-8-8-8-8-5-5-5-5-7-7-7-7-5-5-5-5-8-8-8-8-5-5-5-5-7-7-7-7-7-7-7-7-|
A|-5-5-5-5-8-8-8-8-3-3-3-3-5-5-5-5-5-5-5-5-8-8-8-8-3-3-3-3-5-5-5-5-5-5-5-5-|
E|-3-3-3-3-6-6-6-6-----------------3-3-3-3-6-6-6-6-------------------------|

e|-----------------------------------------|
B|-----------------------------------------|
G|---------------------12------12----12----|
D|-8-8-8-8-10-10-10-10-12--12--12-12-12-12-|
A|-8-8-8-8-10-10-10-10-10--12--10-12-10-12-|
E|-6-6-6-6--8--8--8--8-----10-----10----10-| x2

e|---------------------------------------------|
B|---------------------------------------------|
G|---------------------12----12----12----12----|
D|-8-8-8-8-10-10-10-10-12-12-12-12-12-12-12-12-|
A|-8-8-8-8-10-10-10-10-10-12-10-12-10-12-10-12-|
E|-6-6-6-6--8--8--8--8----10----10----10----10-|

e|-----------------------------------------------------------------|
B|-----------------------------------------------------------------|
G|---------------------12----12----12----12------------------------|
D|-8-8-8-8-10-10-10-10-12-12-12-12-12-12-12-12-8-8-8-8-10-10-10-10-|
A|-8-8-8-8-10-10-10-10-10-12-10-12-10-12-10-12-8-8-8-8-10-10-10-10-|
E|-6-6-6-6--8--8--8--8----10----10----10----10-6-6-6-6--8--8--8--8-|

e|---------------------------------------------------------|
B|---------------------------------------------------------|
G|-----------------5-5-5-5---------------------------------|
D|-5-5-5-5-8-8-8-8-5-5-5-5-8-8-8-8-5-5-5-5-8-8-8-8-5-5-5-5-|
A|-5-5-5-5-8-8-8-8-3-3-3-3-8-8-8-8-5-5-5-5-8-8-8-8-5-5-5-5-|
E|-3-3-3-3-6-6-6-6---------6-6-6-6-3-3-3-3-6-6-6-6-3-3-3-3-|


| /  slide up
| \  slide down
| h  hammer-on
| p  pull-off
| ~  vibrato
| +  harmonic
| x  Mute note
===============================================================================
Tap to rate this tab
# A B C D E F G H I J K L M N O P Q R S T U V W X Y Z