Song name
# A B C D E F G H I J K L M N O P Q R S T U V W X Y Z

Queers - Wed Have A Riot Doing Heroin tab

-------------------------------------------------------------------------------
We'd Have A Riot Doing Heroin - The Queers
A Day Late And A Dollar Short
-------------------------------------------------------------------------------
Tabbed by: axeslash
Email: holmzito@yahoo.com

Tuning: Standard Tuning

e|---------------------------------|
B|---------------------------------|
G|-3-3-6-6-8-8-6-6-3-6-3-6-3-6-3-6-|
D|-1-1-4-4-6-6-4-4-1-4-1-4-1-4-1-4-|
A|---------------------------------|
E|---------------------------------| x8


e|-------------------------------------------------------------------------------|
B|-------------------------------------------------------------------------------|
G|--------3-3-6-6-8-8-6-6-3-6-3-6-3-6-3-6--------3-3-6-6-8-8-6-6-3-6-3-6-3-6-3-6-|
D|--------1-1-4-4-6-6-4-4-1-4-1-4-1-4-1-4--------1-1-4-4-6-6-4-4-1-4-1-4-1-4-1-4-|
A|-------------------------------------------------------------------------------|
E|-------------------------------------------------------------------------------|

e|-----------------------------------------22-----------------------------|
B|-20-20-20-20-20-20-20-20-----------------22--11--13--10-----------------|
G|-20-20-20-20-20-20-20-20-3-6-3-6-3-6-3-6-22--11--13--10-3-6-3-6-3-6-3-6-|
D|-------------------------1-4-1-4-1-4-1-4----------------1-4-1-4-1-4-1-4-|
A|------------------------------------------------------------------------|
E|------------------------------------------------------------------------|

e|---------------------------------|
B|---------------------------------|
G|-3-3-6-6-8-8-6-6-3-6-3-6-3-6-3-6-|
D|-1-1-4-4-6-6-4-4-1-4-1-4-1-4-1-4-|
A|---------------------------------|
E|---------------------------------| x5

e|--------------------------------|
B|--------------------------------|
G|-3-3-6-6-8-8-6-6-3-6-3-6-3-6-3--|
D|-1-1-4-4-6-6-4-4-1-4-1-4-1-4-1--|
A|--------------------------------|
E|--------------------------------|


| /  slide up
| \  slide down
| h  hammer-on
| p  pull-off
| ~  vibrato
| +  harmonic
| x  Mute note
===============================================================================
Tap to rate this tab
 
# A B C D E F G H I J K L M N O P Q R S T U V W X Y Z