Song name
# A B C D E F G H I J K L M N O P Q R S T U V W X Y Z

Queers - Today I Fell In Love tab

the queers - today i fell in love

verse
e--------------------------------------------------------------| 
B--------------------------------------------------------------| 
G------3------5--3-------------5-----3------5--3---------------|
D---3--3--3---5--3---3---x2--- 5--3--3--3---5--3--3----x2------|
A---3--1--3---3--1---3---------3--3--1--3---3--1--3------------|
E---1-----1--------- 1------------1-----1---------1------------|

chorus
e----------------------------------------------------------------------| 
B----------------------------------------------------------------------| 
G--3-------------3------5-----3------5--------3--5---------------------| 
D--3--3--5---3---3---3--5-----3---3--5---3----3--5---------------------| 
A--1--3--3---3---1---3--3-----1---3--3---3----1--3---------------------| 
E-----1------1-------1------------1------1-----------------------------| 

after chorus
e------------------------------------------------------------------------| 
B------------------------------------------------------------------------| 
G------3-----3-----5-----3-----------------------------------------------| 
D---3--3--3--3--3--5--3--3---x2--(2)-------------------------------------| 
A---3--1--3--1--3--3--3--1-------(2)-------------------------------------|  
E---1-----1-----1-----1-----------0)-------------------------------------| 
()=you can play it or not.
then repeat everything once

then the bell parts sounds like
e----------8-6-5-----------------------------|
B--6-5-6-------------------------------------|
G--------------------------------------------|
D--------------------------------------------|
A--------------------------------------------|
E--------------------------------------------|

then repeat everyting again, play chorus a little more times and fade with it.

comments corrections to thealxpunk@hotmail.com
Tap to rate this tab
# A B C D E F G H I J K L M N O P Q R S T U V W X Y Z