Song name
# A B C D E F G H I J K L M N O P Q R S T U V W X Y Z

Queers - I Didnt Puke tab

THE QUEERS-I DIDN'T PUKE
Tabbed by Ben H (PunkAsPhuck)
 
e------------- 
B------------- 
G------------- 
D-5/7-7-7-7--- 
A-5/7-7-7-7--- (x8) 
E-3/5-5-5-5--- 

e------------------------ 
B------------------------ 
G------7-7-------10-10-10 
D-7-7--7-7--7-7--10-10-10 
A-7-7--5-5--7-7--8--8--8- (x8) 
E-5-5-------5-5---------- 

e------------- 
B------------- 
G------------- 
D-5/7-7-7-7--- 
A-5/7-7-7-7--- (x4) 
E-3/5-5-5-5--- 

e------------------------ 
B------------------------ 
G------7-7-------10-10-10 
D-7-7--7-7--7-7--10-10-10 
A-7-7--5-5--7-7--8--8--8- (x8) 
E-5-5-------5-5---------- 

e------------- 
B------------- 
G------------- 
D-5/7-7-7-7--- 
A-5/7-7-7-7--- (x4) 
E-3/5-5-5-5--- 

e------------------------ 
B------------------------ 
G------7-7-------10-10-10 
D-7-7--7-7--7-7--10-10-10 
A-7-7--5-5--7-7--8--8--8- (x6) 
E-5-5-------5-5---------- 

e---- 
B---- 
G---- 
D-7-- 
A-7-- 
E-5--
Tap to rate this tab
# A B C D E F G H I J K L M N O P Q R S T U V W X Y Z