Song name
# A B C D E F G H I J K L M N O P Q R S T U V W X Y Z

Queers - Psycho Over You tab

Intro Lead
----------------------------------------------------------8-7-----|
--8-8-10--8-8-10--8-8-10--8-7---7--8-8-10--8-8-10--8-8-10-----10--|
------------------------------9-----------------------------------|
------------------------------------------------------------------|
------------------------------------------------------------------|
------------------------------------------------------------------|

Intro Rhythm/Verse
-------------------------------------------------------------------|
-------------------------------------------------------------------|
------------------4-4-4-4-4-4-4-4-5-5-5-5-5-5-5-5-7-7-7-7-7-7-7-7--|
--5-5-5-5-5-5-5-5-4-4-4-4-4-4-4-4-5-5-5-5-5-5-5-5-7-7-7-7-7-7-7-7--|
--5-5-5-5-5-5-5-5-2-2-2-2-2-2-2-2-3-3-3-3-3-3-3-3-5-5-5-5-5-5-5-5--|
--3-3-3-3-3-3-3-3--------------------------------------------------|

Prechorus
-----------------------------------|
-----------------------------------|
--5-5-5-5-5-5-5-5------------------|x2
--5-5-5-5-5-5-5-5-5-5-5-5-5-5-5-5--|
--3-3-3-3-3-3-3-3-5-5-5-5-5-5-5-5--|
------------------3-3-3-3-3-3-3-3--|

-----------------------------------------------------------|
-----------------------------------------------------------|
--5-5-5-5-5-5-5-5-------7-5-5-5-5-5-5-5-5-7-7-7-7-7-7-7-7--|
--5-5-5-5-5-5-5-5-5-5-2-7-5-5-5-5-5-5-5-5-7-7-7-7-7-7-7-7--|
--3-3-3-3-3-3-3-3-5-5-2-5-3-3-3-3-3-3-3-3-5-5-5-5-5-5-5-5--|
------------------3-2-0------------------------------------|

Chorus
-------------------------------------------------------------------|
-------------------------------------------------------------------|
------------------4-4-4-4-4-4-4-4-5-5-5-5-5-5-5-5-7-7-7-7-7-7-7-7--|x2
--5-5-5-5-5-5-5-5-4-4-4-4-4-4-4-4-5-5-5-5-5-5-5-5-7-7-7-7-7-7-7-7--|
--5-5-5-5-5-5-5-5-2-2-2-2-2-2-2-2-3-3-3-3-3-3-3-3-5-5-5-5-5-5-5-5--|
--3-3-3-3-3-3-3-3--------------------------------------------------|

-------------------------------------------|
-------------------------------------------|
--------7-5-5-5-5-5-5-5-5-7-7-7-7-7-7-7-7--|x2 (1st chorus go back to first
--5-5-2-7-5-5-5-5-5-5-5-5-7-7-7-7-7-7-7-7--|    half of chorus for last time
--5-5-2-5-3-3-3-3-3-3-3-3-5-5-5-5-5-5-5-5--|    through.)
--3-2-0------------------------------------|
Tap to rate this tab
# A B C D E F G H I J K L M N O P Q R S T U V W X Y Z