Song name
# A B C D E F G H I J K L M N O P Q R S T U V W X Y Z

Queers - See Ya Later Fuckface tab

the queers
see ya later fuckface
pleasant screams
standard tuning

|----------------------------------------------------------------------|
|----------------------------------------------------------------------|
|----------------------------------------------------------------------|
|--4/5-5-5-5-5-5-5--4/5-5-5-5-5-5-5--4/5-5-5-5-5-5-5--4/5-5-5-5-5-5-5--|
|--4/5-5-5-5-5-5-5--4/5-5-5-5-5-5-5--4/5-5-5-5-5-5-5--4/5-5-5-5-5-5-5--|
|--2/3-3-3-3-3-3-3--2/3-3-3-3-3-3-3--2/3-3-3-3-3-3-3--2/3-3-3-3-3-3-3--|

 G5   
I wasn't looking for trouble
 D5                    G5
But it was looking for me
 G5
I don't have any musles
 D5                       G5
But i can move like Bruce Lee

 C5                      G5
So when a bunch of these pussies started 
 D5              G5
Beating up on my friends
 C5                G5                   D5     
I left the stage intending to land on them

 G5
See ya later fuckface
 G5
See ya later fuckface
 C5
See you in the funny pages 
 G5  D5
fuck you
 G5
See ya later fuckface
 G5
See ya later fuckface
 D5 C5  G5   
We hate you

|-------------------|
|-------------------|
|--7-7-7-7-7-7-7-7--|
|--7-7-7-7-7-7-7-7--|
|--5-5-5-5-5-5-5-5--|
|-------------------|

|----------------------------------------------------------------------|
|----------------------------------------------------------------------|
|----------------------------------------------------------------------|
|--4/5-5-5-5-5-5-5--4/5-5-5-5-5-5-5--4/5-5-5-5-5-5-5--4/5-5-5-5-5-5-5--|
|--4/5-5-5-5-5-5-5--4/5-5-5-5-5-5-5--4/5-5-5-5-5-5-5--4/5-5-5-5-5-5-5--|
|--2/3-3-3-3-3-3-3--2/3-3-3-3-3-3-3--2/3-3-3-3-3-3-3--2/3-3-3-3-3-3-3--|

 G5                    
My dive was graceful and swanlike
 D5                 G5
It was a sight to behold
 G5
I fell on top of a table
 D5                   G5
And broke a couple of bones

 C5        G5 
One of the mongloids girlfriends kicked me
 D5                 G5
Right in the family jewels
 C5                     G5                D5
I socked her one in the eye and said fuck you

 G5
See ya later fuckface
 G5
See ya later fuckface
 C5
See you in the funny pages 
 G5  D5
fuck you
 G5
See ya later fuckface
 G5
See ya later fuckface
 D5 C5  G5   
We hate you

|-------------------|
|-------------------|
|--7-7-7-7-7-7-7-7--|
|--7-7-7-7-7-7-7-7--|
|--5-5-5-5-5-5-5-5--|
|-------------------|

guitar one
|------------------------------------|
|------------------------------------|
|-------------------7-7-7-7-7-7-7-7--|
|--5-5-5-5-5-5-5-5--7-7-7-7-7-7-7-7--|
|--5-5-5-5-5-5-5-5--5-5-5-5-5-5-5-5--|
|--3-3-3-3-3-3-3-3-------------------|

guitar two
|---------------------|
|---------------------|
|--7-7-7-7-5-4--5--7--|
|---------------------|
|---------------------|
|---------------------|

guitar one
|-----------------------------------|
|-----------------------------------|
|------------------5-5-5-5-5-5-5-5--|
|--5-5-5-5-5-5-5-5-5-5-5-5-5-5-5-5--|
|--5-5-5-5-5-5-5-5-3-3-3-3-3-3-3-3--|
|--3-3-3-3-3-3-3-3------------------|

guitar two
|------------------------|
|------------------------|
|--7-7-7-7-5-4--5--7-----|
|---------------------5--|
|------------------------|
|------------------------|

guitar one
|------------------------------------------------------------------------|
|------------------------------------------------------------------------|
|-------------------7-7-7-7-7-7-7-7--5-5-5-5-5-5-5-5-5--7-7-7-7-7-7-7-7--|
|--5-5-5-5-5-5-5-5--7-7-7-7-7-5-7-7--5-5-5-5-5-5-5-5-5--7-7-7-7-7-7-7-7--|
|--5-5-5-5-5-5-5-5--5-5-5-5-5-5-5-5--3-3-3-3-3-3-3-3-3--5-5-5-5-5-5-5-5--|
|--3-3-3-3-3-3-3-3-------------------------------------------------------|

guitar two
|---------------------------------------------|
|---------------------------------------------|
|--7-7-7-7-5-4--5--7--------9---7---5---4---7-|
|---------------------5--7--------------------|
|---------------------------------------------|
|---------------------------------------------|


 G5
See ya later fuckface
 G5
See ya later fuckface
 C5
See you in the funny pages 
 G5  D5
fuck you
 G5
See ya later fuckface
 G5
See ya later fuckface
 D5 C5  G5   
We hate you
 D5 C5  G5
We hate you 
 D5 C5  G5
We hate you 
 G5 G5
tonight
Tap to rate this tab
# A B C D E F G H I J K L M N O P Q R S T U V W X Y Z