Song name
# A B C D E F G H I J K L M N O P Q R S T U V W X Y Z

Question Mark And The Mysterians - 96 Tears tab

Song: 96 Tears
Band: Question Mark And The Mysterians
Album: 96 Tears
Year:1966
Tabbed by DoteStudios
Email is manbearpigisreal@gmail.com

This is the entire song (the keyboard part at least, the guitar part is already on this 
Everyone should know and love this song.

Intro notes:
E---6-8-10--10--8-6----|
B-8-----------------8--|
G----------------------|
D----------------------|
A----------------------|
E----------------------|

Main riffs
E-7-7-7-7-7-7-7-7-6-6-6-6-6-6-6-6-|
B---------------------------------|
G---------------------------------|
D---------------------------------|
A---------------------------------|
E---------------------------------|

E----------------------------------|
B-8------8------8------8-------8---|
G----7-9----7-9----8-9----8--9---7-|
D----------------------------------|
A----------------------------------|
E----------------------------------|
Tap to rate this tab
# A B C D E F G H I J K L M N O P Q R S T U V W X Y Z