Song name
# A B C D E F G H I J K L M N O P Q R S T U V W X Y Z

Quiet Inception - Lipstick On My Collar tab

-------------------------------------------------------------------------------
                            Quiet Inception - Lipstick on My Collar
-------------------------------------------------------------------------------

Tabbed by: Petter Kristoffersen

Tuning:EADGBe

Intro

 (Clean Guitar):

e|-------0-----0--------0-----3--------0------0-------0-----0--------------------|
B|---------1-----1--------1-----1--------3------3-------3-----3------------------|
G|----0---------------0--------------0--------------0----------------------------|
D|-3---------3-----3--------3----------------------------------------------------|
A|---------------------------------3--------3-----3-------3----------------------|
E|-------------------------------------------------------------------------------|

(Distorted guitar): 

e|------3-3-1-1------3-3-1-1------------------------------------------------|
B|------1-1-1-1------1-1-1-1--------3-3-1-1-------3-3-1-1-------------------|
G|-----------------------------5-5--0-0-0-0--5-5--0-0-0-0-------------------|
D|-3-3-----------3-3-----------5-5-----------5-5----------------------------|
A|-3-3-----------3-3-----------3-3-----------3-3----------------------------|
E|-1-1-----------1-1--------------------------------------------------------|

Pre Chorus

(Clean Guitar):

e|-------0-------0-------------------0---------------------------------------|
B|-------1-------0h1-----------------1---------------------------------------|
G|----0-------0------(x3)-Then:----0---------2-------------------------------|
D|-3---------------------------3---------------------------------------------|
A|---------3----------------------------2h3----------------------------------|
E|---------------------------------------------------------------------------|

(Distorted guitar):

e|---------------------------------------------------------------------------|
B|---------------------------------------------------------------------------|
G|---------------------------------------------------------------------------|
D|-----5---------5----------5----------5---------5-----7br(9)-5h7------------|
A|-5-7---7---5-7---7---5-7---7---5-7----7---5-7---7--------------------------|
E|---------------------------------------------------------------------------|

e|---------------------------------------------------------------------------|
B|---------------------------------------------------------------------------|
G|---------------------------------------------------------------------------|
D|-----5---------5----------5----------5---------5-----7br(9)-5--------------|
A|-5-7---7---5-7---7---5-7---7---5-7----7---5-7---7------------7-------------|
E|---------------------------------------------------------------------------|

Chorus

(Distorted Guitar):

e|---------------------------------------------------------------------------|
B|---------------------------------------------------------------------------|
G|--------------------------------------------------------------5------------|
D|-3--3-3--3--3--3-3--3--3--3-3--3--3--3-3--3-------------------5------------| x2
A|-3--3-3--3--3--3-3--3--3--3-3--3--3--3-3--3--Same pattern but 3------------|
E|-1--1-1--1--1--1-1--1--1--1-1--1--1--1-1--1--------------------------------|

Play the following:

Intro
Pre-Chorus
Chorus

Pre-Chorus

(Distorted guitar):

e|---------------------------------------------------------------------------|
B|---------------------------------------------------------------------------|
G|---------------------------------------------------------------------------|
D|------5----------5----------5----------5----------5-----7br(9)-5h7---------|
A|-5-7----7---5-7----7---5-7----7---5-7----7---5-7---7-----------------------|
E|---------------------------------------------------------------------------|

e|---------------------------------------------------------------------------|
B|---------------------------------------------------------------------------|
G|------------------------------------------------------14br(16)-12h14-------|
D|-----5----------5---------5----------5----------5--------------------------|
A|-5-7---7---5-7---7---5-7----7---5-7----7---5-7---7-------------------------|
E|---------------------------------------------------------------------------|

Solo: 

Guitar 2 plays the pre-chorus during the solo

e|-15p12----12-----------------------------------------------------------------|
B|-------15----15-12-15p12----12--------14b-14b-14br-----------12-----------12-|
G|--------------------------14----14-12-14b-14b-14br-----------12-----------12-|
D|-----------------------------------------------------12h13h14----12h13h14----|
A|-----------------------------------------------------------------------------|
E|-----------------------------------------------------------------------------|

e|-------------------------------------------------------------------------------|
B|-------------------------------------------------------------------------------|
G|-14br-12----------------------------11-12-14-12-14/16-12h14p12-11h12p11-9h11p9-|
D|---------------------------12-14-15--------------------------------------------|
A|------------------12-14-15-----------------------------------------------------|
E|---------12-14-15--------------------------------------------------------------|

e|---------------------------------------------------------------------------|
B|-----------20--------------20----------------------------------------------|
G|-11/12/14-----14/12-11/12--------------------------------------------------|
D|---------------------------------------------------------------------------|
A|---------------------------------------------------------------------------|
E|---------------------------------------------------------------------------|


************************************

| /   slide up
| \   slide down
| h   hammer-on
| p   pull-off
| ~   vibrato
| +   harmonic
| x   Mute note
| b   Bend
| pb  Pre-bend
| br  Bend release
| pbr Pre-bend release
| brb Bend release bend

************************************
Tap to rate this tab
# A B C D E F G H I J K L M N O P Q R S T U V W X Y Z