Song name
# A B C D E F G H I J K L M N O P Q R S T U V W X Y Z

Quiet Riot - Picking Up The Pieces tab

Quiet riot        
Picking up the pieces
Guitarist randy Rhoads 
Tabbed by jacobsmithuk@live.co.uk

         2x
e|----------------|17b-17-16-15-14---------|-----------|17-17-17-17-17-17-17|
B|---------15-----|----------------17-15-14|-14-15--17b|--------------------|
G|-7/11/14--------|------------------------|-----------|--------------------|
D|----------------|------------------------|-----------|--------------------|
A|----------------|------------------------|-----------|--------------------|
E|----------------|------------------------|-----------|--------------------|

e|---------------17-|-15-14----14------------------------------------|
B|--------15b-------|-------17----15-14----14------------------------|
G|------------------|-------------------16----16-14----14------------|
D|------------------|-------------------------------16----16-14----14|
A|------------------|-------------------------------------------16---|
E|------------------|------------------------------------------------|

e|---------------------------|------15---17----15--15-|
B|-------------------------14|------------------------|
G|-------------16-16-14-16---|------12---14----12--12-|
D|----14-16-14---------------|------------------------|
A|-16------------------------|------------------------|
E|---------------------------|------------------------|







Tap to rate this tab
 
# A B C D E F G H I J K L M N O P Q R S T U V W X Y Z