Quiet Riot - Mamas Little Angels tab

Quiet riot
Song Mamas Little Angels
Album quiet riot 
1977
Fact it is also from there album
The Randy Rhoads years there song 
Last call for rock n roll

E|----------------------------------|-----|------------------------------|-------|
B|----------------------------------|-----|------------------------------|-------|
G|----------------------------------|--8--|------------------------------|-----8-|
D|----------------3------3----------|--8--|------------3------3----------|--8--8-|
A|---------------------------5---3--|--6--|------------------------5---3-|--8--6-|
E|-/---1---4---5--------------------|-----|-1---4---5--------------------|--6----|


E|------------------------------|-----|------------------------------|-------|
B|------------------------------|-----|------------------------------|-------|
G|------------------------------|--8--|------------------------------|-----8-|
D|------------3------3----------|--8--|------------3------3----------|--8--8-|
A|-----------------------5---3--|--6--|------------------------5---3-|--8--6-|
E|-1---4---5--------------------|-----|-1---4---5--------------------|--6----|



E|------------------------------|-----|------------------------------|-------|
B|------------------------------|-----|------------------------------|-------|
G|------------------------------|--8--|------------------------------|-----8-|
D|------------3------3----------|--8--|------------3------3----------|--8--8-|
A|-----------------------5---3--|--6--|------------------------5---3-|--8--6-|
E|-1---4---5--------------------|-----|-1---4---5--------------------|--6----|


E|------------------------------|-----|------------------------------|-------|
B|------------------------------|-----|------------------------------|-------|
G|------------------------------|--8--|------------------------------|-----8-|
D|------------3------3----------|--8--|------------3------3----------|--8--8-|
A|-----------------------5---3--|--6--|------------------------5---3-|--8--6-|
E|-1---4---5--------------------|-----|-1---4---5--------------------|--6----|

E|------------------------------|-----|------------------------------|-------|
B|------------------------------|-----|------------------------------|-------|
G|------------------------------|--8--|------------------------------|-----8-|
D|------------3------3----------|--8--|------------3------3----------|--8--8-|
A|-----------------------5---3--|--6--|------------------------5---3-|--8--6-|
E|-1---4---5--------------------|-----|-1---4---5--------------------|--6----|
Tap to rate this tab
 
# A B C D E F G H I J K L M N O P Q R S T U V W X Y Z