Song name
# A B C D E F G H I J K L M N O P Q R S T U V W X Y Z

Quiet Riot - Lets Get Crazy tab

-------------------------------------------------------------------------------
			  LETS GET CRAZY (DEMO - Quiet Riot
-------------------------------------------------------------------------------
Tabbed by: aaaaaaaaa7777
Email: aalexart@yahoo.com
 
Tuning: Standard (with distortion)

e|---------------------------------------------------------------------------|
B|---------------------------------------------------------------------------|
G|---------------------------------------------------------------------------|
D|---------------------------------------------------------------------------|
A|----0/0/3--5--2/3----0--3--5--2/3----0/0--3--5--2/3----0--3--5--2/3--------|
E|---------------------------------------------------------------------------|

e|--------------------------------|
B|--------------------------------|
G|--------------------------------|
D|--------------------------------|
A|----0--5--0--5--0----0--3--0----|
E|--------------------------------|

  verses (slide down before every 0-3-5-3-5-3-0 to make that awesome sound   
  effect

e|---------------------------------------------------------------------------|
B|---------------------------------------------------------------------------|
G|---------------------------------------------------------------------------|
D|---------------------------------------------------------------------------|
A|----0--3--5--3--5--3--0----0--3--5--3--5--3--0--------3----5----3----------|
E|---------------------------------------------------------------------------|

e|---------------------------------------------------------------------------|
B|---------------------------------------------------------------------------|
G|---------------------------------------------------------------------------|
D|---------------------------------------------------------------------------|
A|----0--3--5--3--5--3--0----0--3--5--3--5--3--0----0--3--5--3--5--3--0------|
E|---------------------------------------------------------------------------|

e|---------------------------------------------------------------------------|
B|---------------------------------------------------------------------------|
G|---------------------------------------------------------------------------|
D|---------------------------------------------------------------------------|
A|----0----5----0------------0----3----0-------------------------------------|
E|---------------------------------------------------------------------------|



/ = slide & quick note


thats basically it, although you may see it in different orders throughout the song

===============================================================================
Tap to rate this tab
# A B C D E F G H I J K L M N O P Q R S T U V W X Y Z