Song name
# A B C D E F G H I J K L M N O P Q R S T U V W X Y Z

Quietdrive - Rise From The Ashes Acoustic tab

I saw like 4 tabs, and plenty people playing this SO wrong.
This is the correct chords and lead part. These are played during all the song so
it's not hard from that. 


Intro to Rise From The Ashes by Quietdrive

()=additional notes played 
p = pull off
g = hammer on

Lead Guitar - EADGBE
Rhythm Guitar - EADGBE



Rhythm
E|-7----(5)----0----(2)----|
B|-5-----0-----0-----0-----|
G|-4-----2-----1-----4-----| x2         Do a bar on 4th fret for the first chord
D|-6-----2-----2-----4-----|
A|-4-----0-----2-----2-----|
E|-x-----x-----0-----x-----|

Lead
E|---0--0--0--0--0--0--0--0-0-0-0-0-0-0-0--0-0-0-0-0-0-0-0-0-0-0-0-0-0-0-0-0--|
B|-12-12-12-12-12-12-12-10-9-9-9-9-9-9-9-10-5-5-5-5-5-5-5-9-7-7-7-7-7-7-7-7---|
G|----------------------------------------------------------------------------|
D|----------------------------------------------------------------------------|
A|----------------------------------------------------------------------------|
E|----------------------------------------------------------------------------|

E|-4-2-0-------4-2-0------------------|---------------------------------|
B|-------4-2-0-------4-2-0-4-5-4-0--x3|-4h5-5-4h5-5-5-4h5p4-2-0---------|
G|------------------------------------|---------------------------------|
D|------------------------------------|---------------------------------|
A|------------------------------------|---------------------------------|
E|------------------------------------|---------------------------------|

Enjoy
Tap to rate this tab
# A B C D E F G H I J K L M N O P Q R S T U V W X Y Z