Quietdrive - Rise From The Ashes tab

That's the whole song. have fun

Intro:

||------------------------------------------------------------------|
||------------------------------------------------------------------|
||-66666666666666----------------------------------4444444444444444-|
||-66666666666666-777777777777777-2222222222222222-4444444444444444-|  x2
||-44444444444444-777777777777777-2222222222222222-2222222222222222-|
||----------------555555555555555-0000000000000000------------------|

Vers:

||------------------------------------------------------------------|
||------------------------------------------------------------------|
||-66666666666666----------------------------------4444444444444444-|
||-66666666666666-777777777777777-2222222222222222-4444444444444444-|  x2
||-44444444444444-777777777777777-2222222222222222-2222222222222222-|
||----------------555555555555555-0000000000000000------------------|

Chorus:

||------------------------------------------------------------------|
||------------------------------------------------------------------|
||-66666666666666----------------------------------4444444444444444-|
||-66666666666666-777777777777777-2222222222222222-4444444444444444-|  x2
||-44444444444444-777777777777777-2222222222222222-2222222222222222-|
||----------------555555555555555-0000000000000000------------------|

Vers 2:

||------------------------------------------------------------------|
||------------------------------------------------------------------|
||-66666666666666----------------------------------4444444444444444-|
||-66666666666666-777777777777777-2222222222222222-4444444444444444-|  x2
||-44444444444444-777777777777777-2222222222222222-2222222222222222-|
||----------------555555555555555-0000000000000000------------------|


Chorus:

||------------------------------------------------------------------|
||------------------------------------------------------------------|
||-66666666666666----------------------------------4444444444444444-|
||-66666666666666-777777777777777-2222222222222222-4444444444444444-|  x2
||-44444444444444-777777777777777-2222222222222222-2222222222222222-|
||----------------555555555555555-0000000000000000------------------|

Bridge:

||------------------------------------------------------------------|
||------------------------------------------------------------------|
||-99999999999999-444444444444444-6666666666666666------------------|
||-99999999999999-444444444444444-6666666666666666-7777777777777777-|  x2
||-77777777777777-222222222222222-4444444444444444-7777777777777777-|
||-------------------------------------------------5555555555555555-|

||------------------------------------------------------------------|
||------------------------------------------------------------------|
||-66666666666666----------------------------------4444444444444444-|
||-66666666666666-777777777777777-2222222222222222-4444444444444444-|  x2
||-44444444444444-777777777777777-2222222222222222-2222222222222222-|
||----------------555555555555555-0000000000000000------------------|

Chorus:

||------------------------------------------------------------------|
||------------------------------------------------------------------|
||-66666666666666----------------------------------4444444444444444-|
||-66666666666666-777777777777777-2222222222222222-4444444444444444-|  x2
||-44444444444444-777777777777777-2222222222222222-2222222222222222-|
||----------------555555555555555-0000000000000000------------------|

Ending:

||------------------------------------------------------------------|
||------------------------------------------------------------------|
||--9-----------------4---------------------------------------------|
||--9-----------------4-----------------7---------------------------|
||--7-----------------2-----------------7---------------------------|
||--------------------------------------5---------------------------|

Thx.!
Tap to rate this tab
 
# A B C D E F G H I J K L M N O P Q R S T U V W X Y Z