Song name
# A B C D E F G H I J K L M N O P Q R S T U V W X Y Z

Quietdrive - Rush Together tab

guitar 1:
e|------6------4------3---------------6------4------3--|
B|-4--4---4--4---4--4---4---4---4---4--4---4---4---4---|
G|--3-------3------3------3---3---3------3-------3-----|
D|-----------------------------------------------------|
A|-----------------------------------------------------|
E|-----------------------------------------------------|

guitar 2:

e|---------------------------------------------------------------------------|
B|------4---------------4---------------4---------------4---------------4----|
G|----0---0---0-------0---0---0-------0---0---0-------0---0---0-------0---0--|
D|--1-------1---1---1-------1---1---1-------1---1---1-------1---1---1--------|
A|3---------------3---------------0---------------0--------------------------|
E|----------------------------------------------------------------4----------|

(continued)

e|-----------------------|
B|-------------4---------|
G|---0-------0---0---0---|
D|-1---1---1-------1---1-|
A|-----------------------|
E|-------4---------------|

this pretty much repeats for the whole first half of the song...

also i kind of found this hard at first but it also works if for guitar 1 you put a capo 
the 3rd fret and for guitar 2 you put a capo on the first fret and only cover E A and D

enjoy
Tap to rate this tab
# A B C D E F G H I J K L M N O P Q R S T U V W X Y Z