Quincy Jones - Soul Bassa Nova Austin Powers Theme tab

Soul Bossa Nova - Quincy Jones
Also known as "The Austin Powers Theme"

Intro:
10 bars rest

e----13--13-13--13-13--13----|
B----------------------------|
G----------------------------|
D----------------------------|
A----------------------------|
E----------------------------|

Verse 1:
e------9-9-6-6----9-9-6-6----9-9-6-6----9-9-6-6--|
B----6----------6----------6----------6----------|
G------------------------------------------------| X2
D------------------------------------------------|
A------------------------------------------------|
E------------------------------------------------|

Chorus:
e------9-6-9-9----9-6-9-9-----9-9----------------|
B----6----------6----------11-----11-------------|
G------------------------------------------------|
D------------------------------------------------|
A------------------------------------------------|
E------------------------------------------------|

Verse 1:
e------9-9-6-6----9-9-6-6----9-9-6-6----9-9-6-6--|
B----6----------6----------6----------6----------|
G------------------------------------------------| X2
D------------------------------------------------|
A------------------------------------------------|
E------------------------------------------------|

Chorus:
e------9-6-9-9----9-6-9-9-----9-9----------------|
B----6----------6----------11-----11-------------|
G------------------------------------------------|
D------------------------------------------------|
A------------------------------------------------|
E------------------------------------------------|

Verse 2:
e-------13-------------------------|
B----15-----13h15p13-11----13--11--|
G-----------------------12---------| x3
D----------------------------------|
A----------------------------------|
E----------------------------------|

Verse 3:
e---------------------10-11-12-13--13--|
B------------10-11-12------------------|
G----9h10h11---------------------------|
D--------------------------------------|
A--------------------------------------|
E--------------------------------------|

Verse 1:
e------9-9-6-6----9-9-6-6----9-9-6-6----9-9-6-6--|
B----6----------6----------6----------6----------|
G------------------------------------------------| X2
D------------------------------------------------|
A------------------------------------------------|
E------------------------------------------------|

Chorus:
e------9-6-9-9----9-6-9-9-----9-9----------------|
B----6----------6----------11-----11-------------|
G------------------------------------------------|
D------------------------------------------------|
A------------------------------------------------|
E------------------------------------------------|

Verse 4:
e----13--11-8-----------------8-11-8-------------|
B-------------11-9-11------11--------11-9-11-----|
G------------------------------------------------| x2
D------------------------------------------------|
A------------------------------------------------|
E------------------------------------------------|

Flute Solo
8 bars rest

Verse 2:
e-------13-------------------------|
B----15-----13h15p13-11----13--11--|
G-----------------------12---------| x3
D----------------------------------|
A----------------------------------|
E----------------------------------|

Verse 3:
e---------------------10-11-12-13--13--|
B------------10-11-12------------------|
G----9h10h11---------------------------|
D--------------------------------------|
A--------------------------------------|
E--------------------------------------|

Verse 1:
e------9-9-6-6----9-9-6-6----9-9-6-6----9-9-6-6--|
B----6----------6----------6----------6----------|
G------------------------------------------------| X2
D------------------------------------------------|
A------------------------------------------------|
E------------------------------------------------|

Chorus:
e------9-6-9-9----9-6-9-9-----9-9----------------|
B----6----------6----------11-----11-------------|
G------------------------------------------------|
D------------------------------------------------|
A------------------------------------------------|
E------------------------------------------------|

Verse 4:
e----13--11-8-----------------8-11-8-------------|
B-------------11-9-11------11--------11-9-11-----|
G------------------------------------------------| x4 (fade out)
D------------------------------------------------|
A------------------------------------------------|
E------------------------------------------------|
Tap to rate this tab
 
# A B C D E F G H I J K L M N O P Q R S T U V W X Y Z