Song name
# A B C D E F G H I J K L M N O P Q R S T U V W X Y Z

Quit Your Dayjob - Beat The Boss tab

---------------------------------------------------------------------------------------
			     BEAT THE BOSS - Quit Your Dayjob
---------------------------------------------------------------------------------------

Tuning: Standard

This is the intro, which is played over the drumbeat in the beginning of the song. It is 
muted and tremolo picked.

e|-----------------------------------------------------------------|
B|-----------------------------------------------------------------|
G|-8-8-8-8-8-8-8-8-7-7-7-7-7-7-7-7-1-1-1-1-1-1-1-1-1-1-1-1-1-1-1-1-|
D|-----------------------------------------------------------------|
A|-----------------------------------------------------------------|
E|-----------------------------------------------------------------|

The chorus. Repeat 4 times.

e|-------------------------------------------------|
B|-4-4-4-4-4-4-4-4--3--4-4--4-4-4-3--4-4--4-4-4----|
G|-3-3-3-3-3-3-3-3---------------------------------|
D|-1-1-1-1-1-1-1-1---------------------------------|
A|-------------------------------------------------|
E|-------------------------------------------------|

This solo is played after the second chorus. It is tremolo picked, just like the intro.

Part 1 (repeat 4 times)

e|-----4-4-4-4-4-4-4-4-4-4-4-4-4-4-------------------------------------------|
B|-4-4-----------------------------2-2-4-4-4-4-4-4-3-3-4-4-4-4-4-4-----------|
G|---------------------------------------------------------------------------|
D|---------------------------------------------------------------------------|
A|---------------------------------------------------------------------------|
E|---------------------------------------------------------------------------|

Part 2 (repeat 3 times)

e|-----4-4-4-4-4-4-4-4-4-4-4-4-4-4-4-4-4-4-4-4-4-4-4-4-4-4-4-4-4-4-3-3-3-3-3-3-3-3-3-|
B|-4-4-------------------------------------------------------------------------------|
G|-----------------------------------------------------------------------------------|
D|-----------------------------------------------------------------------------------|
A|-----------------------------------------------------------------------------------|
E|-----------------------------------------------------------------------------------|

Part 3 (only played once)

e|-----4-4-4-4-4-4-4-4-4-4-4-4-4-4-7-7-7-7-7-7-7-7-6-6-6-6-6-6-6-6-----------|
B|-4-4-----------------------------------------------------------------------|
G|---------------------------------------------------------------------------|
D|---------------------------------------------------------------------------|
A|---------------------------------------------------------------------------|
E|---------------------------------------------------------------------------|


The final chorus is played this way.

e|------------------3--4-4--4-4-4-3--4-4--4-4-4----|
B|-4-4-4-4-4-4-4-4---------------------------------|
G|-3-3-3-3-3-3-3-3---------------------------------|
D|-1-1-1-1-1-1-1-1---------------------------------|
A|-------------------------------------------------|
E|-------------------------------------------------|

=======================================================================================
Tap to rate this tab
# A B C D E F G H I J K L M N O P Q R S T U V W X Y Z