Song name
# A B C D E F G H I J K L M N O P Q R S T U V W X Y Z

Quit - Remember tab

-------------------------------------------------------------------------------
                             Remember - Quit
-------------------------------------------------------------------------------
Tabbed by: squintyjoefan
E-mail: squintyjoefan@hotmail.co.uk

Track 15 from the album 'Earlier Thoughts'

Song can be found here: http://www.youtube.com/watch?v=MOy39cbxU2A

Tuning: Standard (EADGBe)

Song order

Intro (x2)
Verse Intro
Verse (x2)
Chorus Part 1 (x2)
Chorus Part 2 (x2)
Chorus End
Verse (x2)
Chorus Part 1 (x2)
Chorus Part 2 (x2)
Chorus End
Pre-solo
Solo
Chorus Part 1 (x2)
Chorus Part 2 (x2)
Chorus End
Chorus Part 2 (x3)
End on E5

Intro (0.00-0.07)
e|---------------------------------------------------------------------------|
B|---------------------------------------------------------------------------|
G|-------9----7------------5-----7-------------------------------------------|
D|--5----9----7------5-----5-----7-------------------------------------------|
A|--5----7----5------5-----3-----5-------------------------------------------|
E|--3----------------3-------------------------------------------------------|

Verse Intro (0.10-0.12)
e|---------------------------------------------------------------------------|
B|---------------------------------------------------------------------------|
G|--------------77-----------------------------------------------------------|
D|--55555555----77---5-------------------------------------------------------|
A|--55555555----55---5-------------------------------------------------------|
E|--33333333---------3-------------------------------------------------------|
                     Play this G5 a few times

Verse                 
e|---------------------------------------------------------------------------|
B|---------------------------------------------------------------------------|
G|--------------44444444---------------555555555-----------------------------|
D|---55555555---44444444---22222222----555555555-----------------------------|
A|---55555555---22222222---22222222----333333333-----------------------------|
E|---33333333--------------00000000------------------------------------------|

Chorus Part 1
e|---------------------------------------------------------------------------|
B|---------------------------------------------------------------------------|
G|-------------77777777----99999999----555555555-----------------------------|
D|-55555555----77777777----99999999----555555555-----------------------------|
A|-55555555----55555555----77777777----333333333-----------------------------|
E|-33333333------------------------------------------------------------------|

Chorus Part 2
e|---------------------------------------------------------------------------|
B|---------------------------------------------------------------------------|
G|------------4-444444---5-5555555---7-7777777-------------------------------|
D|-5-555555---4-444444---5-5555555---7-7777777-------------------------------|
A|-5-555555---2-222222---3-3333333---5-5555555-------------------------------|
E|-3-333333------------------------------------------------------------------|

Chorus End
e|---------------------------------------------------------------------------|
B|---------------------------------------------------------------------------|
G|------------------5--5--4--------------------7-----------------------------|
D|--555555-5-4--2---5--5--4---555555--5-4-2----7-----------------------------|
A|--555555-5-4--2---3--3--2---555555--5-4-2----5-----------------------------|
E|--333333-3-2--0-------------333333--3-2-0----------------------------------|
                                               D5 is used here. All others strum C5
Riff in Verse 2
e|---------------------------------------------------------------------------|
B|---------------------------------------------------------------------------|
G|---12-12--11-11--12-11--12-11----------------------------------------------|
D|----x--x---x--x---x--x---x--x----------------------------------------------|
A|---10-10---9--9--10--9--10--9----------------------------------------------|
E|---------------------------------------------------------------------------|

Pre-solo
e|---------------------------------------------------------------------------|
B|---------------------------------------------------------------------------|
G|-------------5555----------------------------------------------------------|
D|-------------5555-5555--77777777--55-99-77---------------------------------|
A|---77777777--3333-5555--77777777--33-77-55---------------------------------|
E|---55555555-------3333--55555555-------------------------------------------|


Solo (Guitar 1)
Plays variations of this basic riff (1.35-2.04)
e|------------------------------------------0--------------------------------|
B|-0------------0--------------0---------------0-----------------------------|
G|---0-------0-----0---------------0-----------------------------------------|
D|--------2------------------------------2-----------------------------------|
A|---------------------------------------------------------------------------|
E|---------------------------------------------------------------------------|

And this riff with distortion (2.05-2.20)
e|---------------------------------------------------------------------------|
B|----0---------0------------------------------------------------------------|
G|--0---0-----0--------------------------------------------------------------|
D|----------2----------------------------7-----------------------------------|
A|---------------------------------------7-----------------------------------|
E|---------------------------------------5-----------------------------------|
Play this bit 4 times                    End by strumming A5

Solo (Guitar 2 - Lead)
    (1.45)                (1.49)
e|------------------------14/15-(15)-14--------------------------------------|
B|--------------------------------------15----12b13--------------------------|
G|--5p4p2----------------------------------------------12--------------------|
D|-------5p4p0--------------------------------------12----12----12-----------|
A|-----------------------------------------------------------12--------------|
E|---------------------------------------------------------------------------|

   (1.57)                                   (2.01)
e|------------------------------------------15-------------------------------|
B|---------------/12---------------------------------------------------------|
G|--11--12-11--------12-11-12-11---------------------------------------------|
D|-----------12--------------------------------------------------------------|
A|---------------------------------------------------------------------------|
E|---------------------------------------------------------------------------|
   
   (2.02)                     (2.05)          (2.09)      (2.12)      (2.15)
e|----------------------------12+-----12+----------12+----------------(5+)---|
B|-13p12p10-----------------------12+---------12+-------------7+-------------|
G|----------12p10p9---------------------------------------12+----------------|
D|---------------------------------------------------------------------------|
A|-------------------12------------------------------------------------------|
E|---------------------------------------------------------------------------|

Ending
e|---------------------------------------------------------------------------|
B|---------------------------------------------------------------------------|
G|---------------------------------------------------------------------------|
D|--2~-----------------------------------------------------------------------|
A|--2~-----------------------------------------------------------------------|
E|--0~-----------------------------------------------------------------------|
    E5

************************************

| /   slide up
| \   slide down
| h   hammer-on
| p   pull-off
| ~   vibrato
| +   harmonic
| x   Mute note
| b   Bend
| pb  Pre-bend
| br  Bend release
| pbr Pre-bend release
| brb Bend release bend

************************************
Tap to rate this tab
# A B C D E F G H I J K L M N O P Q R S T U V W X Y Z