Song name
# A B C D E F G H I J K L M N O P Q R S T U V W X Y Z

Quorthon - Oh No No tab

Quorthon - Oh No No
-------------------

Tuning: Drop D (D A D G B E)

I'm too busy to write the song structure, but I think it's not that difficult.
Here again, no solo this time. Sorry.


Intro/Bridge/Solo A

E|---------------------|----------------------|
B|---------------------|----------------------|
G|---------------------|----------------------|
D|---------------------|----------------5--X\-|
A|-----5--------0--0-3-|-----3----------5--X\-|
D|-2-3---0--2-3--------|-2-3---0--2-3-0-5--X\-|
  

Verse

E|------------------|---------------|------------------|-------------|
B|------------------|-------------6-|------------------|-------------|
G|------------------|-------------5-|------------------|-------------|
D|------5-4-----5-4-|----5-4------3-|------5-4-----5-4-|-0-2-3--3-X\-|
A|------5-5-----5-5-|----5-5--3-3---|------5-5-----5-5-|-0-2-3--3-X\-|
D|-0-00------00-----|-00------3-3---|-0-00------00-----|-0-2-3--3-X\-|
   . ..      ..       ..      . .     . ..      ..
       

Pre-Chorus
E|--------------------|----------------|
B|--------------------|-------------6--|
G|--------------------|-------------5--| not quite sure
D|--------------------|-------------3--| about this part
A|--------------------|--------5--3----|
D|-3p0-3p0-00-3p0-3p0-|-00-3p0-5--3----|


Chrorus
E|--------------------------|
B|--------------------------| after this riff
G|----------------------R---| play the first 2 bars
D|-5--5--5-5-5-8--8-8-3---3-| of Verse B, then
A|-5--5--5-5-5-8--8-8-3---3-| repeat this riff again
D|-5--5--5-5-5-8--8-8-3---3-|


Solo B
E|---------------|-----------------|-----------------|-----------------|
B|---------------|-----------------|-----------------|-----------------|
G|---------------|-----------------|-----------------|-----------------| repeat that
D|---------------|-----------------|-----------------|-----------------| the whole 
A|-1-1-1-1-1-1-1-|-3-3-3-3-3-3-3-3-|-5-5-5-5-5-5-5-5-|-1-1-1-1-1-1-1-1-| second Solo
D|-1-1-1-1-1-1-1-|-3-3-3-3-3-3-3-3-|-5-5-5-5-5-5-5-5-|-1-1-1-1-1-1-1-1-|


Outro

E|--------------|
B|--------------|
G|--------------| let ring -> last note
D|--------------|
A|-1-1---3-3--5-|
D|-1-1---3-3--5-|



Description:
------------
p -> pull-of
. -> palm mute
X\-> just slide down from one of the higher frets
R -> Pause
Tap to rate this tab
 
# A B C D E F G H I J K L M N O P Q R S T U V W X Y Z