Song name
# A B C D E F G H I J K L M N O P Q R S T U V W X Y Z

Quorthon - Its Ok tab

Quorthon - It's OK
-------------------

Tuning: Drop D (D A D G B E)


Intro (Clean Guitar)

E|-----------------|--------------|
B|-----5-----5-----|-5--------5---|
G|---4---------4---|---4--------4-|
D|-2-----0---------|--------2-----|
A|---------3-----0-|--------------|
D|-----------------|-----2--------|
  

Verse A/Solo

E|--------------|-------------|
B|--------------|-------------|
G|---------5----|-------------|
D|---------5----|-------------|
A|-0-2-2-0-3--0-|-5--7-7--3-3-|
D|-0-2-2-0----0-|-5--7-7--3-3-|


Verse B

E|-----------------|-----------------|-----------------|-----------------|
B|-----------------|-----------------|-----------------|-----------------|
G|-----------------|-----------------|-----------------|-----------------|
D|-----------------|-----------------|---------2-2-2-2-|-----------------|
A|-2-2-2-2-5-5-5-5-|-4-4-4-4-4-4-4-4-|-2-2-2-2-0-0-0-0-|-4-4-4-4-4-4-4-4-|
D|-2-2-2-2-5-5-5-5-|-4-4-4-4-4-4-4-4-|-2-2-2-2---------|-4-4-4-4-4-4-4-4-|

E|-----------------|-----------------|-----------------|-----------------|
B|-----------------|-----------------|-----------------|-----------------|
G|-----------------|-----------------|-----------------|-----------------|
D|-----------------|-----------------|---------4-4-4-4-|-5-5-5-5-5-5-5-5-|
A|-2-2-2-2-5-5-5-5-|-4-4-4-4-4-4-4-4-|-2-2-2-2-2-2-2-2-|-3-3-3-3-3-3-3-3-|
D|-2-2-2-2-5-5-5-5-|-4-4-4-4-4-4-4-4-|-2-2-2-2---------|-----------------|

E|-----------------|-----------------|-----------------|
B|-----------------|-----------------|-----------------|
G|-----------------|-----------------|-----------------|
D|-7-7-7-7-7-7-7-7-|-4-4-4-4-4-4-4-4-|-5-5-5-5-5-5-5-5-|
A|-5-5-5-5-5-5-5-5-|-2-2-2-2-2-2-2-2-|-3-3-3-3-3-3-3-3-|
D|-----------------|-----------------|-----------------|


Pre-Chorus

E|-----------------------|
B|-----------------------|
G|-2--2------5--5-5-7--7-|
D|-2--2-3--3-5--5-5-7--7-|
A|-0--0-3--3-3--3-3-5--5-|
D|------3--3-------------|


Chorus

E|-------------|-----------------|
B|-------------|-----------------|
G|-2--2--------|-----------------| at the last Chorus
D|-2--2-3-3--2-|-----------------| let ring the last
A|-0--0-3-3--2-|-2-2-2-2-2-2-2-2-| note in the first bar
D|------3-3--2-|-2-2-2-2-2-2-2-2-|


Solo

E|-----------------------------|
B|--------------------------10-| with some
G|-7-9-9-7-9--7-9--7-9----9----| variations
D|-7-9-9-7-9--7-9--7-9--7------| on the last
A|-----------------------------| notes
D|-----------------------------|


Song Structure:
---------------
Intro      4x
Verse A    8x
Verse B    1x
Pre-Chorus 4x
Chorus     4x
Verse A    8x
Verse B    1x
Pre-Chorus 8x
Chorus     4x
Solo       4x
Verse B    1x
Pre-Chorus 8x
Chorus     4x
Tap to rate this tab
# A B C D E F G H I J K L M N O P Q R S T U V W X Y Z