Song name
# A B C D E F G H I J K L M N O P Q R S T U V W X Y Z

Quruli - Hana No Mizudeppu tab

Song: Hana no Mizudeppu
Artist: Quruli
Album: Antenna
Website: http://www.quruli.net

This is "Hana no Mizudeppu" or "Water Gun of Flowers" by Quruli. It's a catchy song that 
take some time practicing to get the picking parts smooth.

The song has a very simple structure. It is made up of only three parts.
ORDER:
INSTRUMENTAL SECTION (x2) PICKING PART (x16) CHORUS (x4) PICKING PART (x4) INSTRUMENTAL 
(x4) CHORUS(x8) PICKING PART (x4)

INSTRUMENTAL SECTION

E  :---------------------|----------------|----------------|
B  :---------------------|----------------|----------------|
G  :12---10---10-12-10-8-|5---------------|8---5---5-8-5-8-|
D  :---------------------|----------------|----------------|
A  :10----8----8-10--8-6-|3---------------|6---3---3-6-3-6-|
E  :---------------------|----------------|----------------|

E  :-----------------|
B  :-----------------|
G  :10---------------|
D  :-----------------|
A  :-8---------------|
E  :-----------------|

PICKING PART

E  :----1---3---1---|------1---------|
B  :--3---3---3---3-|1---1---1-------|
G  :0---------------|--3-------3-0---|
D  :----------------|--------------3-|
A  :----------------|----------------|
E  :----------------|----------------|

CHORUS


E  :----------------|----------------|----------------|
B  :----------------|----------------|----------------|
G  :----------------|----------------|----------------|
D  :5---3---3-5-3-1-|----------------|----------------|
A  :----------------|3---1-3-5---1---|3---3-5-3-1-----|
E  :----------------|----------------|------------3---|

Tabbed by Jetpackjotto
Tap to rate this tab
# A B C D E F G H I J K L M N O P Q R S T U V W X Y Z