Guitaretab - guitar tabs
Song name
# A B C D E F G H I J K L M N O P Q R S T U V W X Y Z
Home / Q / Quruli / Race tab

Quruli - Race tab

Song: Race
Album: Antenna
Artist: Quruli
Label: JVC Japan

It's a pretty hard intro to get from this tab alone...and to get it right you should 
to the song and try to get the odd timing down.

It's in drop D. It only has TWO parts: the intro riff that is repeated at various parts 
the song, and a chorus.

[ Tab from: ]
E  :-----0-2-0-2-0-----|------------------|-----------------|
B  :---3-----------2---|------------------|---------3-------|
G  :-------------------|0--2-3--2-0-------|-----2-----------|
D  :-------------------|------------------|---0-------------|
A  :-------------------|------------------|0----------------|
D  :0------------------|------------------|-----------------|

E  :-----------------|-----------------|----------------|
B  :---------3-------|---------3-------|-----------1---1|
G  :-----2-----------|-----2-----------|-----------2---2|
D  :---0-------------|---0-------------|----------------|
A  :3----------------|2----------------|----------------|
D  :-----------------|-----------------|3---5---0-------|

E  :2----------------|3----------------|
B  :3----------------|3----------------|
G  :2----------------|3----------------|
D  :0----------------|0----------------|
A  :0----------------|-----------------|
D  :0----------------|-----------------|
Related for Race tab