Song name
# A B C D E F G H I J K L M N O P Q R S T U V W X Y Z

Qwel - Chicago Barbecue tab

Artist: Qwel
Song: Chicago Barbecue
Tuning: Standard
Tabbed by: Phantomtollboy
Official Site:http://www.galapagos4.com/artist.php?artist_id=85

Pattern 1: 2x's

E|--11--7--4-----4--7--|
B|--12--9--5--5--5--9--|
G|------------6--------|
D|---------------------|
A|---------------------|
E|---------------------|

Pattern 2: 2x's

E|--7--4--2--|
B|--9--5--4--|
G|-----------|
D|-----------|
A|-----------|
E|-----------|
Tap to rate this tab
# A B C D E F G H I J K L M N O P Q R S T U V W X Y Z